Oops, an error
Loading. Please wait.

Love Song For No One Tab

version 2
version 2

Whole song

Interactive

9,028 views 12 this week
1 commentread comment
1 2 3 4 5
accurate
x 3
add to favorites
launch autoscroll
font size
0
reset
how to read this tab
guitar tuner
Tab Pro tools
  • play this tab
  • loop segment
  • change instrument
  • show fretboard
  • metronome
×
Best way to learn
"Love Song For No One"
Autoscroll
slow
fast
+/-
esc
set tempo
stop
Contributor
Capo
2nd fret
-----------------------------------------------------------------
Love Song For No One - John Mayer
-----------------------------------------------------------------
Tabbed by: Swish
Email: himmelsuchen@aol.com

Tuning: Standard Tuning(EADGBe): Capo 2
   ***All notes/chords are relative to capo***

Intro Chords:

e|---3---3---3---3---|
B|---3---3---3---3---|
G|---0---0---0---0---|
D|---0---2---0---2---|
A|---x---0---2---3---|
E|---3---x---x---x---|

Intro Riff:

e|-----------------------------------         ---------------------|
B|-----------------------------------         ---------------------|
G|---------------0---------------0---         ---------------------|
D|---0---2-/-4-------4-\-2-p-0------- (X3)    ---0-----2-/-4-\-2---|
A|-----------------------------------         ---------------------|
E|-----------------------------------         ---------------------|

Verse:

e|--------------------------------------------------------------|
B|-------------------------------0-----------------0------------|
G|-----------------------0-------0-----------------0--2-----4---|
D|-----------0-----------2-------4-----------0h2h4-------4------|
A|-----------x--------------------------------------------------|
E|---3---3---3---3---3-------3-------3---3----------------------|
     *   *   *   *   *       *       *   *      *play notes with thumb
e|-------------------------------------------------------------|
B|-------------------------------0-----------------0--0--------|
G|-----------------------0-------0-----------------0--2p0------|
D|-----------0-----------2-------4-----------0h2h4---------3---|
A|-----------x-------------------------------------------------|
E|---3---3---3---3---3-------3-------3---3---------------------|
     *   *   *   *   *       *       *   *
e|--------------------------------------------------------------------|
B|-----------1-------1---1---1------1-------1-----------1---1---------|
G|-------2---0-------0---2---0------0-------0-------0---2---0---------|
D|-------3---3---3---3---3---3---3------3-------3---3---3---3---------|
A|--------------------------------------------------------------------|
E|---1---------------------------1------------------------------/10---|
     *                           *                               *
e|---10------10------10--10--10------10------10------10--10--10----------|
B|---8-------8-------8---7---7-------8-------8-------8---7---7-----------|
G|---9-------9-------9---9---9-------9-------9-------9---9---9-----------|
D|-----------------------------------------------------------------------|
A|-------x-------------------------------x-----------------------0-------|
E|---10----------10--------------10--------------10------------------3---|
     *           *               *               *                   *
Chorus Chords:

e|---3---7---0---3---|
B|---3---8---8---3---|
G|---0---7---0---0---|
D|---0---7---0---2---|
A|---x---9---7---3---|
E|---3---7---0---x---|

Chorus Riff:

e|---3-------2---3-------------2---3--------------2---3-------------2---3---|
B|-------3-----------------3------------------3-----------------3-----------|
G|--------------------------------------------------------------------------|
D|--------------------------------------------------------------------------| (X4)
A|--------------------------------------------------------------------------|
E|--------------------------------------------------------------------------|

Post Chorus:
   "...get here."
e|---------------------------------------------------|
B|---------------0---------------0-------------------|
G|---0---2-/-4-------4-\-2-p-0-------0---2-/-4-\-2---|
D|---------------------------------------------------|
A|---------------------------------------------------|
E|---------------------------------------------------|

Verse.
Chorus.

Bridge:

e|---------0-----------   ---------0-------3---   ---------0-----------|
B|---1h3-------3---3---   ---1h3-------3---3---   ---1h3-------3---3---|
G|---0---------0---0---   ---0---------0---0---   ---0---------0---0---|
D|---2---------0---2---   ---2---------0---2---   ---2---------0---2---|
A|---0---------2---3---   ---0---------2---2---   ---0---------2---3---|
E|---------------------   ---------------------   ---------------------|
   "watched you walk away..."
e|------------------------------------------------------------------|
B|--------------------------1---------------1---1---1---1---1---1---|
G|----------0-----------0---0---------------0---0---0---0---0---0---|
D|-------2----------0-------3---------------3---3---3---3---3---3---|
A|---3----------2-----------3---------------3---3---3---3---3---3---|
E|--------------------------1---------------1---1---1---1---1---1---|

Solo:

e|-----------------------------------------------------------|
B|---3-------3-------3-----------3-------3-------3-----------|
G|---2-------2-------2h4p2-------2-------2-------2h4p2-------|
D|-------5-------5-----------5-------5-------5-----------5---|
A|-----------------------------------------------------------|
E|-----------------------------------------------------------|

e|-------------------------------------------------------------------3-----3-------|
B|---3-----------3---------3-------------3---------------3-----------3-----3-------|
G|---2---5-------2h4-------2h4p2-----------------2---------------/4------------5---|
D|-----------5---------5-----------5p4-------4-------5-------5\0-------------------|
A|---------------------------------------------------------------------------------|
E|---------------------------------------------------------------------------------|

e|--------------------------------------------------------------------------------------------------|
B|-------------------5h8p5-------------------7h10p7-------------------8-----8-----------------------|
G|------------5h7p5----------5------------------------7h9p7-----------7h9---7-------7---7-------7---|
D|------------------------------------------------------------9-----------------10--9---7-------7---|
A|---------------------------------------7--------------------------------------------------10------|
E|---/5---5----------------------5---7----------------------------8---------------------------------|

Bridge.
Chorus.

Outro:

e|---3-------2---3-----------2---3------------2---3-----------2---3---      ------2--3-----2--3--3---|
B|-------3---------------3----------------3---------------3-----------      ---3--------3--------3---|
G|--------------------------------------------------------------------      ---------------------0---|
D|-------------------------------------------------------------------- (X3) ---------------------0---|
A|--------------------------------------------------------------------      ---------------------x---|
E|--------------------------------------------------------------------      ---------------------3---|

| / slide up
| \ slide down
| h hammer-on
| p pull-off
| ~ vibrato
| + harmonic
| x Mute note
comments
We did not receive enough feedback on this tab! Please rate:
print report bad tab
1 2 3 4 5
1 comment total.
0 reply
Dontbeahata wrote on June 26 2009, 12:26 pm

dude what the hell

I want to post or [tab]
guest
You may want to rate the tab now too:
select rating
Please do not post tabs as comments. Select "correction" instead!