Oops, an error
Loading. Please wait.

Man On The Side Acoustic Tab

8,156 views 1 this week
2 commentsread comments
1 2 3 4 5
x 3
add to favorites
launch autoscroll
font size
0
reset
how to read this tab
guitar tuner
×
Best way to learn
"Man On The Side Acoustic"
Autoscroll
slow
fast
+/-
esc
set tempo
stop
Author
Difficulty
  follow
intermediate
Tabbed by: Jon Carter
Email: jonhesive@hotmail.com

Tuning:

e|------|---------------------------|-----------------------------|--------------|
B|---5~-|------------------------5~-|---------5------7-----5-4-04-|-----4-------2|
G|---4~-|------------------------4~-|-------4-------4-----------4-|----4-4-----2-|
D|---6~-|---4----6---------------7~-|-----7--------4------------4-|---4---4---2--|
A|------|--------------7----4----4~-|---4---------4-------------2-|--2-----2-0---|
E|---0~-|--0------------------------|-----------------------------|--------------|

e|--------x-|----0--/4------------|--------------/4------------------------0---|
B|-2------x-|------------7---5----|--5--------------7--5-----5-----------4-----|
G|--2-----x-|-4-------------------|--4-----------------------4h6p4-------4-----|
D|---2----x-|---------------------|--4h6p4--------------------------7-4--4-----|
A|----0-0-x-|-2-------------------|-0~------7--4-(4)~------4-------------2-----|
E|--------x-|-------(0)~----------|--------------------------------------------|

e|---------4------------------------------------------------------------------|
B|--4------------2-2--0--------9\---------------------------------------------|
G|--4---4----4---2-2--2--2--2--9\---------------------------------------------|
D|------4--------2-2--2--2--2--7\---------------------------------------------|
A|----2---------0--0--0--x--x--x\---------------------------------------------|
E|-----------------------2--2--7\---------------------------------------------|

My first tab.. corrected.  Pretty much how i play it.

| /  slide up
| \  slide down
| h  hammer-on
| p  pull-off
| ~  vibrato
| +  harmonic
| x  Mute note
===============================================================================
Suggest correction
Give kudos to tab author, rate the tab!
1 2 3 4 5
comments
print report bad tab
2 comments total.
0 reply
jonhesive 38 May 27, 2009 02:22 AM

The timing is not right and there's a few wrong and missed notes because i didnt have a guitar with me at the time i was just really bored, but you should understand where im going with this..
jonc.

0 reply
Johnmayergal 141 Aug 10, 2009 12:55 AM

hey man chances sre most people who read this tab wont have an idea of how the timing goes just by reading it theyll more than likley have the music playin

guest
You may want to rate the tab now too:
select rating
Wanna post a correction for this tab? Suggest correction