Oops, an error
Loading. Please wait.

Man On The Side Tab

version 1
version 1

Whole song

Interactive

117,393 views 99 this week
6 commentsread comments
1 2 3 4 5
x 38
add to favorites
launch autoscroll
font size
0
reset
how to read this tab
guitar tuner
Autoscroll
slow
fast
+/-
esc
set tempo
stop
Help us to improve Ultimate-Guitar.com Take our survey!
×
Author
Man on the side

[Intro]

e|-----------------------------------------------------------------------------------------------|
B|----/9-------------------------------------3--3--3---------------------------------------------|
G|----/9--11--9------------------------------2--2--2------7----7h9-------------------------------|
D|--------11--9-----------9------------------0--2--0---/9---9-------9s7--5---7---5h6-------------|
A|---------------11---/11---11s9p7---7-------------------------------------7---7------7p5---7----|
E|---------------------------------9---9/--0-------3--------------------------------------7---0--|

e|------------------------------------------------------------------------------------------|
B|----3--3--3------------------12----9-------------------------------------------/9---------|
G|----2--2--2----------9----------11---11-11p9----9----------9-------------------/9--11--9--|
D|----0--2--0--------9----11-------------------11---11--9----------------------------11--9--|
A|--------------9h11------------------------------------9h11---9h10p9-7-9-7-----------------|
E|----------3--------------9------------------------------------------------9s0-------------|

e|---------------------------------------------------------------------------------------------|
B|--------------------------------------3--3--3----------8-------------------------3--3--3--3--|
G|---------9----------------------------2--2--2------7h8---9-7----7----------------2--2--0--2--|
D|---------9--(9)-----------------------0--2--0---/9-----------/9---9s7-5----------0--2--0--0--|
A|----9h11-----9h10p9-7-------7-(9)/--------------------------------------7-5------------------|
E|----------------------9s7-0----9-/-0--------0-------------------------------7~-0-------3--2--|

[Part 1]
[Verse]
e|-----------------------------------------------------------------------------------------|
B|----5-------5----5--------5-----5----5-----5---4------4h5--4-----5----5-------5----5-----|
G|----4-------4----4--------4-----4h6--4-----4---4------4----4-----4h6--4-------4----4-----|
D|----6-------4h6--4--------7-----7----7-----7---4------4h6--4-----7------7-----4h6--4-----|
A|--------------------7--4--4--4----------4----------------------0-----------0----------7--|
E|----0--0-0-------------------------------------7--7-7------------------------------7-----|
I think he plays (5x745x) instead of (x0745x)

[Part 2]
"Excuse me.."
e|---0----------0----------------0----------------------------------|
B|----0---9--7---0---------4--5---0---9--9--9----2---4--5---4--5----|
G|----2---9--8---1---2-4---4--4---2---9--9--9----3---4--4---4--4----|
D|----2---7--7---2---2-2---2--2---2---7--7--9----2---2--2---4--4----|
A|----x---x--x---2---x-x---0--0---x---x--x--x----x---0--0---2--2----|
E|----2---7--7---0---2-4----------2---7--8--9----2------------------|

[Part 3]
[Chorus]
e|---0---0---0---0---------- ---0---0---0---0----0----------|
B|----0---0---0---0---------- ---0---0---0---0----3--(2)----|
G|----1---2---2---4---------- ---1---2---4---2----2--(2)----|
D|----2---2---2---4---(x2)--- ---2---2---4---2----0--(2)----|
A|----2---x---0---2---------- ---2---x---x---0--------4-----|
E|----0---2---x---x---------- ---0---2---4---x--------------|

[Part 4]
"Excuse me.." (second time)
e|---0----------0----------0----------------------------------|
B|----0---9--7---0---9--7---0---9--9--9----2---4--5---4--5----|
G|----2---9--8---2---9--8---2---9--9--9----3---4--4---4--4----|
D|----2---7--7---2---7--7---2---7--7--9----2---2--2---4--4----|
A|----x---x--x---x---x--x---x---x--x--x----x---0--0---2--2----|
E|----2---7--7---2---7--7---2---7--8--9----2------------------|

[Part 5]
"I fell in love.."
e|---3---5---0---------7--------7----5----3---5---------------------|
B|----3---5---0---------5------5------5----3---5-----------3---3----|
G|----5---7---1---2-4---5----5--------5----5---7---4---4---2---2----|
D|----5---7---2---2-2---x------------------5---7---2---2---0---0----|
A|----3---5---2---x-x---x------------------3---5---0---x---x---x----|
E|------------0---2-4---5--5----------5----------------4---3---2----|


************************************

| x    Dead note
| (n)  Ghost note
| h    Hammer-on
| p    Pull-off
| /    Slide up
| ~    Vibrato
| s    Slide

************************************
Suggest correction
comments
print report bad tab
6 comments total. Showing first comments.
0 reply
FLiPNoTiK 10 Jun 07, 2009 05:51 AM

tough tab

0 reply
Br5072 10 Jun 13, 2009 01:22 AM

i don't know how many versions john has of this song but is this the acoustic tab?

0 reply
mini_b7 71 Jun 26, 2009 09:56 PM

thas what it sounds like to me. :-D

guest
You may want to rate the tab now too:
select rating
Wanna post a correction for this tab? Suggest correction