Oops, an error
Loading. Please wait.

Man On The Side Tab

version 3
version 3

Whole song

Interactive

12,933 views 1 this week
2 commentsread comments
1 2 3 4 5
please rate
add to favorites
launch autoscroll
font size
0
reset
how to read this tab
guitar tuner
Autoscroll
slow
fast
+/-
esc
set tempo
stop
Help us to improve Ultimate-Guitar.com Take our survey!
×
#----------------------------------PLEASE NOTE---------------------------------#
#This file is the author's own work and represents their interpretation of the #
#song. You may only use this file for private study, scholarship, or research. #
#------------------------------------------------------------------------------#

John Mayer - Man On The Side (Transcribed by John Hoac, john.hoac@gmail.com)

Note: There is another tabbed version which sounds much better than this one. I'm
posting this up as an 'easier' alternative which sounds close enough (in my opinion
anyway).

 I
===

   E             C#m            B             A        E/G#

|----------------4-------------------------^----------------------|
|--5--5---5---5--5---5---5---5--4---4h5-4--^---0h2--0----5---5----|
|--4--4---4---4--6---4h6-4---4--4---4---4--^---2----2----4---4----| (Intro)
|--6--4h6-4---4--6---6---6---6--4---4---4--^---2----2----4h6-4----|
|----------------4-4-------4----2-2--------^--0----------------7--|
|--0--------0------------------------------^-----------4----------|

   E             C#m            B             A        E/G#

|--0-------------4-------------------------^----------------------|
|--0---0--0---0--5---5---5---5--4---4h5-4--^---0h2--0----5---5----|
|--1---1--2---1--6---4h6-4---4--4---4---4--^---2----2----4---4----|
|------2--2---2--6---6---6---6--4---4---4--^---2----2----4h6-4----|
|----------------4-4-------4----2-2--------^--0----------------7--|
|--0--0-----0------------------------------^-----------4----------|



 II
====

   A2    B       E  E/F#  A2  A2/F#  B-B/C C#m  F#m    A2    B-Bsus

|--0-----4--2----0--0-----0------0--------------2-2------0--------|
|--0-----4--4----0--0-----0---0--0---4--4--4----2-2----0-0---4-5--|
|--2-----4--4----1--1-----2---2--2---4--4--6----2-2----2-2---4-4--|
|-----------------------------2------4--4--6-----------2-----4-4--|
|--------2--2-------------0----------2--3--4-----------0-0---2-2--|
|--0-------------0--2--4------2--2--------------2-2---------------|

 III (chorus)
=====

  E-E/F# A2     B

|--0--0--0-----------0-|
|--0--0--0----0-----0--|
|--1--1--2---2-----4---| X 2
|-----------2-----4----|
|--------0-------2-----|
|--0--2----------------|


  E-E/F# A2    D D/C# E

|--0--0--0------2--2--0-|
|--0--0--0--0---3--3--0-|
|--1--1--2--2---2--2--1-| X 2
|-----------2---0-------|
|--------0--2------4----|
|--0--2---------------0-|


 IV (bridge)
====

   C   D   E       Am

|--0---2---0-------0----0---2---0--0--2--2--0--|
|--1---3---0-------1----1---3---0--0--3--3--0--|
|--0---2---1--(2)--2----0---2---1--1--2--2--1--|
|--2---0---2--(2)--2----2---0---2--1--0-----2--|
|--3-------2-------0----3-------2--x-----4--2--|
|----------0--(2)---------------0--x--------0--|
Suggest correction
What's this?
You can suggest a correction to this tab. Community and Mods will review your correction and vote to approve or reject it.
comments
We did not receive enough feedback on this tab! Please rate:
print report bad tab
1 2 3 4 5
2 comments total.
0 reply
Heather D 143 wrote on June 21 2009, 01:21 am

As you say, not 100% accurate, but a really good easier version. (Sounds good;) Nice job!

0 reply
mcbuslon 13 wrote on June 26 2009, 10:50 am

Is this the tab he usually plays live? Or usually plays?

guest
You may want to rate the tab now too:
select rating
Please do not post tabs as comments. Select "correction" instead!