Oops, an error
Loading. Please wait.

Message In A Bottle Tab

version 1
version 1

Whole song

176,600 views 99 this week
13 commentsread comments
1 2 3 4 5
x 44
add to favorites
launch autoscroll
font size
0
reset
how to read this tab
guitar tuner
Autoscroll
slow
fast
+/-
esc
set tempo
stop
Help us to improve Ultimate-Guitar.com Take our survey!
×
Author
[Part 1]
[Intro/Verse]
e|--------------------------------|
B|--------------------------------|
G|-------8-----4-------6----------|
D|-------6-----2-------4---6--6---|
A|---0-4-----0-----0-2-----4--4---|
E|-------------------------2--2---|

or, from (4-17-01)

e|----------------------------------|
B|----------------------------------|
G|--------8---4--4-------6----------|
D|---6----6---2--2-------4---6--6---|
A|---4--------0--0---0-2-----4--4---|
E|------0--------------------2--2---|

[Part 2]
"I'll send an SOS to the world"
e|-------0------------------0-------0-------0---|
B|--(0)--3---0----------0---3---0---3---0---3---|
G|---2---2---1----------2---2---2---2---2---2---|
D|---2---0---4---(x2)---2---0---2---0---2---0---|
A|---0-------2----------x-------x-------x-------|
E|-----------0----------2-------2-------2-------|

He sometimes plays (x2423x) instead of the last (xx0230).

[Part 3]
"Message in the bottle"
e|-----------------------------|
B|---5-----(5p4)---------------|
G|---4-----(4)---------4---4---|
D|---6-----(6p4)-----2-----2---|
A|---4--(4)--------0-------x---|
E|-------------------------4---|

[Part 4]
e|--------0----2---0---|
B|-------0-----0---0---|
G|------3------3---3---|
D|-----2-------2---2---|
A|----x--------x---x---|
E|---2---------2---2---|

or

e|--------4---|
B|-------0----|
G|------2-----|
D|-----4------|
A|----x-------|
E|---2--------|

(He plays both)

[Part 5]
e|------------------------------------------|
B|------------------------------------------|
G|-------8------4------6--------------------|
D|-----6------2------4--------6---(etc..)---|
A|---4------0------2--------4---------------|
E|------------------------2-----------------|

[Part 6]
e|---------------4---|
B|---------------0---|
G|---8---4---4---2---|
D|---6---2---4---4---|
A|---4---0---2---x---|
E|---------------2---|

(2x4204) can be replaced by (2x2204), (2x2204), (2x4200) and (2x2200)


************************************

| (n)  Ghost note
| x    Dead note
| p    Pull-off

************************************
Suggest correction
comments
print report bad tab
13 comments total. Showing first comments.
0 reply
Caltow 51 Jul 15, 2009 02:47 PM

This tab is 100% accurate as far as the finger positions go... just that the chorus is hard to understand unless you have listened to it a lot... great job on the finger positions though.. I love playing this song.

+1 reply
Kennocha 41 Jul 16, 2009 03:16 PM

what does this mean? or, from (4-17-01)

-1 reply
shift3448 202 Jul 19, 2009 11:06 AM

or from april 17 2001 dumbshit

guest
You may want to rate the tab now too:
select rating
Wanna post a correction for this tab? Suggest correction