Oops, an error
Loading. Please wait.

Moving On And Getting Over chords

version 1
version 1

Whole song

  • Includes intro/chorus lick and intro solo. More lead parts coming.
  • Standard tuning. Only the basic chords. Feel free ... Show more
  • This is a simplified version that doesn't require a capo and its standard.
  • This version has the bridge improved.
46,240 views 924 this week
2 commentsread comments
1 2 3 4 5
x 50
add to favorites
×
Save as Personal and add changes to this tab that will be seen only by you. Learn more ›
×
You can save this tab as Personal to edit and correct it or add notes. All changes will be seen only by you. Learn more »
launch autoscroll
font size
0
reset
transpose
0
reset
simplify chords
display chords
guitar tuner
edit
Autoscroll
slow
fast
+/-
esc
set tempo
stop
Author
Difficulty
About this tab version
Includes intro/chorus lick and intro solo. More lead parts coming.
Strumming
There is no strumming pattern for this song yet. and get +5 IQ
John Mayer
"Moving On And Getting Over"

Standard tuning. Corrections welcome!


   E6   AM7       B    F#m7 C#m  C#m7 E    G#m  C#7
e|-9----9----4----7----9----4----4----4----4----4----|
B|-9----9----5----7----10---5----5----5----4----6----|
G|-9----9-or-6----8----9----6----4----4----4----4----|
D|-9----7----7---(9)---11---6----6----6----6----6----|
A|(7)--------x----x---(9)---4----4----7----x----4----|
E|----------(5)--(7)----------------------(4)--------|


[Intro]
  E6                       AM7 
e|------7/9~--7-----------|------------------------|
B|9-----------------9-----|-----9h10~--9-----------|
G|------------------------|9-----------------11--9-|
D|------------------------|------------------------|
A|------------------------|------------------------|
E|------------------------|------------------------|
 |
e|------------------------|------------------------|
B|------------------------|------------------------|
G|------9-----9-----------|------------------------|
D|------9h11--9-----9-----|-----11-----9-----------|
A|11----------------9h11--|11---11h12--9h11--9-----|
E|12----------------------|12-------------------12-|

[Solo]   
  C#m           B                        C#m                  B
e|-----------------------------------------------------------------------------------|
B|-----------------------------------------------12-14--12~---/12-14-----------------|
G|-------------------------------6-9-/11-9~--/13---------------------13-11-----------|
D|----------------------7h9--7h9-------------------------------------------14-11-14~-|
A|----7-9-11-9-/11-9~----------------------------------------------------------------|
E|7-9--------------------------------------------------------------------------------|

[Verse]
F#m7      B
Moving on and getting over
F#m7                         B   
Are not the same, it seems to me
F#m7                   B 
Cause you've been gone, I'm growing older
E6                        AM7
But I still can't seem to get you off my mind
E6                 AM7
And I do believe I feel you all the time

F#m7 B
F#m7 B

[Verse]
F#m7      B
Moving on and getting over
F#m7                            B
Are not the friends they used to be
F#m7             B     
It's been so long since I got to hold you
E6                        AM7
But I still can't seem to get you off my mind
E6                 AM7
And I do believe I feel you all the time, all the time

[Bridge]
C#m           C#m7                   E
Tell me I can have the fact you've loved me to hold onto
C#m           C#m7                   E 
Tell me I can keep the door cracked open, to let light through
AM7 C#m      B     G#m        AM7
For all my running, I can understand
AM7     C#m   B         E    C#7
I'm one text away from being back again

[Turnaround]
  C#7
e|---------16-14----------------------|
B|------15-18-16-17-15----------------|
G|12/13-16-------18-16-14-13-12-------| Dual guitar part
D|14/15----------------16-15-14-14-12-|
A|------------------------------16-14-|
E|------------------------------------|

F#m7
But I'm moving on and I'm getting over
F#m7
I'm-a getting over, I'm getting over
F#m7
I got to get over

[Verse 3]
F#m7     B                   F#m7  B
Moving on and getting over
F#m7              B
It's been so long; it just goes to show you
E6                         AM7
That I still can't seem to get you off my mind
E6                       AM7
And I sure would like to see you one more time, one more time, baby

[Break]
F#m7  B
F#m7  B
F#m7  B
F#m7  B

[Outro]
F#m7                               B
It's taken me so long just to say "so long"
F#m7                           B 
Maybe it's all wrong, but I'm moving on
F#m7                                           B
I'm gonna get a new girl, it's something I can do, girl
F#m7                                       B
To try to get me through, girl, cause I'm moving on
F#m7
I'm moving on
B
And I'm moving on
F#m7
I'm moving on
B
And I'm moving on
F#m7
Consider me as good as gone
B
Cause I'm moving on



***********************************
| /   Slide up
| \   Slide down
| h   Hummer-on
| p   Pull-off
| ~   Vibrato
| x   Dead note
| b   Bend
| r   Bend release
| ()  Optional chord noes
***********************************
Suggest correction
Creating personal tab
Creating personal tab
You can edit any tab online and save it as your Personal.

You can edit, replace or remove any tab part or add personal notes – all changes will be seen only by you.

Personal tabs can be accessed anytime from any device, even offline.
Learn more »
comments
print report bad tab
2 comments total.
+2 reply
Keeilay 45 Jan 20, 2017 02:22 PM, edited at 07:22 pm

Can't wait for the solo :D I was going to write everything else until I saw this! Wonderful job!

+4 reply
LukaasG 74 Jan 21, 2017 08:16 AM

To me it really seems like the bass is playing an F# during your C#m? What do you think?

guest
You may want to rate the tab now too:
select rating
Wanna post a correction for this tab? Suggest correction