Oops, an error
Loading. Please wait.

Neon Tab

version 4
version 4

Interactive

Video

9,205 views 1 this week
1 commentread comment
1 2 3 4 5
accurate
x 4
add to favorites
launch autoscroll
font size
0
reset
how to read this tab
guitar tuner
Autoscroll
slow
fast
+/-
esc
set tempo
stop
Help us to improve Ultimate-Guitar.com Take our survey!
×
Contributor
Difficulty
DANO MAKI 277
advanced
Neon  12:47am
Transcribed By
Daniel Aramaki

This is a different version of Neon that John played way back in the day.  THIS IS 
NOT THE ALBUM VERSION OF NEON!!!!!

e|---------------------------------------------------------------|
B|-------6--------6\--------4------------------------------------|
G|-----5--------5---------3--------------------------------------|
D|---8--------8---------6----------------------------------------|
A|---------------------------------------------------------------|
E|---------------------------------------------------------------|


This part is played palm muted
And the whole song is played with picking at 16ths(I think) tempo
There are a ton of mutes and stuff going on throughout the whole song so make sure you 
to the song closely.

Played 2x
e|---------------------------------------------------------------|
B|---------------------------------------------------------------|
G|---3--3--3---5--X--X--5--3--X---X---X---X---X------------------|
D|---------------------------------------------------------------|
A|---------------------------------------------------------------|
E|---------------------------------------------------------------|

e|---------------------------------------------------------------|
B|---------------------------------3--3--------------------------|
G|---3--3--3---5--X--X--5--3---3----------3----------------------|
D|---------------------------------------------------------------|
A|---------------------------------------------------------------|
E|---------------------------------------------------------------|

Played 2x
e|---3--3--3-----------------------------------------------------|
B|-------------6--------4p-3---4p-3---------------4--------------|
G|----------------------------------3-----------3---3------------|
D|--------------------------------------3h—5-/6--------6---------|
A|---------------------------------------------------------------|
E|---------------------------------------------------------------|

e|---3--3--3-----------------------------------------------------|
B|-------------6--------4p-3---4p-3-------------4---6------------|
G|----------------------------------3---------3--------3---------|
D|------------------------------------3h-5-/6--------------------|
A|---------------------------------------------------------------|
E|---------------------------------------------------------------|


e|---------------------------------------------------------------|
B|---4--3--------------------------------------------------------|
G|---------5--3--------3-----------3-----------------------------|
D|---------------5--------5—3h--5------3/-1---1--1--3--1--3/-----|
A|------------------------------------------3----------------3/--|
E|---------------------------------------------------------------|

e|---------------------------------------------------------------|
B|---4--3--------------------------------------------------------|
G|---------5--3---------3----3-----------------------------------|
D|---------------5--------/5---5\-3--1---1—3/5—-1/3\1------------|
A|-------------------------------------3-------------------------|
E|---------------------------------------------------------------|

e|---------------------------------------------------------------|
B|---4--3--------6-----4--3--------------------------------------|
G|---------5--3--------------5--3---------3----------------------|
D|---------------------------------5--/5-----5\3--1----1--3------|
A|---------------------------------------------------3-----------|
E|---------------------------------------------------------------|

e|---X-X-X-X-X---6-3---------------------------------------------|
B|-------------------4-------------------------------------------|
G|---------------------------------3-----------------------------|
D|----------------------------5--/5---5\3-1---3/-----------------|
A|------------------------------------------3--------------------|
E|---------------------------------------------------------------|


e|---------------------------------------------------------------|
B|---------6----------6----------4-------------------------------|
G|------5----------5----------3----------------------------------|
D|---8----------8----------6-------------------------------------|
A|---------------------------------------------------------------|
E|---------------------------------------------------------------|

e|----------------------------------------------3----------------|
B|---------6----------6---------4-------4-----4------------------|
G|------5----------5----------3-------3--------------------------|
D|---8----------8-----------3-------5------6---------------------|
A|---------------------------------------------------------------|
E|---------------------------------------------------------------|


e|---3-X-X-3-3-4-3-----------------------------------------------|
B|-----------------6-4-------------------------------------------|
G|---------------------5-----3-----------------------------------|
D|------------------------/5---5\3--1-----1/---------------------|
A|-------------------------------------3-------------------------|
E|---------------------------------------------------------------|

e|---3-X-X-3-3--6—3h4p3--------/3--6-----------------------------|
B|----------------------6-4-6--------6--4--6---------------------|
G|---------------------------------------------------------------|
D|---------------------------------------------------------------|
A|---------------------------------------------------------------|
E|---------------------------------------------------------------|

e|---10----------------------------------------------------------|
B|--------11--8------4--3----------------------------------------|
G|------------------------3----------3---------------------------|
D|----------------------------5--/5-----5\3--1-----1—3/----------|
A|----------------------------------------------3----------------|
E|---------------------------------------------------------------|

e|---------------------------------------------------------------|
B|---------------------------------------------------------------|
G|---8/10---10-10----10/12---12--12------------------------------|
D|---X------X--X-----X-------X---X-------------------------------|
A|---6/8----8--8-----8/10----10--10------------------------------|
E|---------------------------------------------------------------|

e|---------------------------------------------------------------|
B|---11--11--11--11-----15--15--15--15------15/16-16--16—-16\----|
G|---x---x---x---x------x---x---x---x-------x-----16--x---x------|
D|---8---8---8---8------12--12--12--12------12/13-13--13—-13\----|
A|---------------------------------------------------------------|
E|---------------------------------------------------------------|

Right here he does a little jam using octaves. It’s tough to tab out
So just use your imagination
Right after the jam he goes into this

e|--------8-------8----------------------------------------------|
B|---11b13-----11------------------------------------------------|
G|--------------------11p10p8----8—10b12r10--8-------------------|
D|----------------------------10--------------10--8--------------|
A|--------------------------------------------------10--8--------|
E|---------------------------------------------------------11--8-|

e|---------------------------------------------------------------|
B|---------------------------------------------------------------|
G|------8b1/2---10b12r10--8------10--8---------------------------|
D|---10--------------------10----------10--8---------------------|
A|---------------------------------------------------------------|
E|---------------------------------------------------------------|

e|---------------------------------------------------------------|
B|--------------------------11b13--13----------------------------|
G|---10b12r10---8-----10—-8--------------------------------------|
D|----------------10---------------------------------------------|
A|---------------------------------------------------------------|
E|---------------------------------------------------------------|

e|---8--------------------------------------------------------------|
B|-----11--8---------------------------11b13---11b13~ --------------|
G|------------10--8—10b12--8----------------------------------------|
D|----------------------------10—-8/--------------------------------|
A|------------------------------------------------------------------|
E|------------------------------------------------------------------|


e|---------------------------------------------------------------|
B|---8/6--4--4--6-------6b-6--4-----6b--6--4---------------------|
G|---------------------------------------------------------------|
D|---------------------------------------------------------------|
A|---------------------------------------------------------------|
E|---------------------------------------------------------------|

e|----------------------------------------------3----------------|
B|---------6----------6---------4-------4-----4------------------|
G|------5----------5----------3-------3--------------------------|
D|---8----------8-----------3-------5------6---------------------|
A|---------------------------------------------------------------|
E|---------------------------------------------------------------|

| b  bend
| /  slide up
| \  slide down
| h  hammer-on
| p  pull-off
| ~  vibrato
| +  harmonic
| x  Mute note
Suggest correction new What's this?
You can suggest a correction to this tab. Community and Mods will review your correction and vote to approve or reject it.
comments
print report bad tab
1 comment total.
-1 reply
veniceking 205 wrote on July 21 2009, 09:35 pm

are u sure this is neon?

I want to post or [tab]
guest
You may want to rate the tab now too:
select rating
Please do not post tabs as comments. Select "correction" instead!