Oops, an error
Loading. Please wait.

Neon Tab

version 5
version 5

Interactive

Video

16,493 views 6 this week
no commentswrite comment
1 2 3 4 5
please rate
add to favorites
launch autoscroll
font size
0
reset
how to read this tab
guitar tuner
Tab Pro tools
  • play this tab
  • loop segment
  • change instrument
  • show fretboard
  • metronome
×
Best way to learn
"Neon"
Autoscroll
slow
fast
+/-
esc
set tempo
stop
Contributor
Difficulty
advanced
John Mayer

Neon



^ ^ ^ ^ ^
S S S S S S S S S S S S S S S S S S S S S S S S S T T S S S S S S
E||-------------------------------------------|--------------------------------------------||
B||-------------8--x--------------4-----------|--------4--x-----------------9-----------8--||
G||*----------x----x-10---------3---x---------|------3----x-3-------------8---0-------7---*||
D||*-----(x)-------x------0---3-----x-5-----6-|----6------x-------(x)---8----------10-----*||
A||---------------------------------x---------|--------------------------------------------||
C||---0-----------------x---3-----------(3)---|--5-L----------(5)--L--8-L-L-----10--L------||


^ ^ ^ ^ ^
S S S S S S S S S S S S S S S S S S S S S S S S S T T S S S S S S 3x
-------------------------------------------|--------------------------------------------||
-------------8--x--------------4-----------|--------4--x-----------------9-----------8--||
*----------x----x-10---------3---x---------|------3----x-3-------------8---0-------7---*||
*-----(x)-------x------0---3-----x-5-----6-|----6------x-------(x)---8----------10-----*||
---------------------------------x---------|--------------------------------------------||
---0-----------------x---3-----------(3)---|--5-L----------(5)-----8---------10---------||


^ ^ ^ ^
S S S S S S S S S S S S S S S S S S S S S S S S S T T S S S S S S
------------------------------------------|---------------------------------------------|
------------8--x--------------4-----------|--------4--x-----------------9---------------|
----------x----x-10---------3---x---------|------3----x-3-------------8---0-------------|
-----(x)-------x------0---3-----x-5-----6-|----6------x-------(x)---8----------10-10\---|
--------------------------------x---------|---------------------------------------------|
--0-----------------x---3-----------(3)---|--5-L----------(5)-----8---------10----------|


W W W
E. E. Q Q E E Q Q Q. E. E. Q Q. H H
-------------------------|-----------------------|----------------------|--------------------|
----------6~----L~-------|----------6----L~------|----------4----L------|--L-----------------|
------5------------------|-----5-----------------|------3---------------|--------------------|
--8-------------------8--|--L--------------------|--6-------------------|--------------------|
-------------------------|-----------------------|----------------------|--------------------|
--8-------------------7--|--L--------------------|--6-------------------|--------------------|


^ ^ ^ ^ ^
S S S S S S S S S S S S S S S S S S S S S S S S S T T S S S S S S
|-------------------------------------------|--------------------------------------------||
|-------------8--x--------------4-----------|--------4--x-----------------9-----------8--||
|*----------x----x-10---------3---x---------|------3----x-3-------------8---0-------7---*||
|*-----(x)-------x------0---3-----x-5-----6-|----6------x-------(x)---8----------10-----*||
|---------------------------------x---------|--------------------------------------------||
|---0-----------------x---3-----------(3)---|--5-L----------(5)-----8---------10---------||


^ ^ ^ ^ ^
S S S S S S S S S S S S S S S S S S S S S S S S S T T S S S S S S 3x
-------------------------------------------|--------------------------------------------||
-------------8--x--------------4-----------|--------4--x-----------------9-----------8--||
*----------x----x-10---------3---x---------|------3----x-3-------------8---0-------7---*||
*-----(x)-------x------0---3-----x-5-----6-|----6------x-------(x)---8----------10-----*||
---------------------------------x---------|--------------------------------------------||
---0-----------------x---3-----------(3)---|--5-L----------(5)-----8---------10---------||


^ ^ ^ ^
S S S S S S S S S S S S S S S S S S S S S S S S S T T S S S T T S S
------------------------------------------|-----------------------------------------------|
------------8--x--------------4-----------|--------4--x-----------------9-----------8-----|
----------x----x-10---------3---x---------|------3----x-3-------------8---0-------7-------|
-----(x)-------x------0---3-----x-5-----6-|----6------x-------(x)---8----------10-----10\-|
--------------------------------x---------|-----------------------------------------------|
--0-----------------x---3-----------(3)---|--5-L----------(5)-----8---------10------------|


W W W
E. E. Q Q E E Q Q Q. E. E. Q Q. H H
-------------------------|-----------------------|----------------------|--------------------|
----------6~----L~-------|----------6----L~------|----------4----L------|--L-----------------|
------5------------------|-----5-----------------|------3---------------|--------------------|
--8-------------------8--|--L--------------------|--6-------------------|--------------------|
-------------------------|-----------------------|----------------------|--------------------|
--8-------------------7--|--L--------------------|--6-------------------|--------------------|


E. E. Q Q E E Q Q Q. Q. Q Q. W
-------------------------|-----------------------|---------------------|-------------------|
----------6~----L~-------|----------6----L~------|--4------6----L------|--4----------------|
------5------------------|-----5-----------------|--3------5----L------|--5----------------|
--8-------------------8--|--L--------------------|--6------8----L------|--6----------------|
-------------------------|-----------------------|---------------------|-------------------|
--8-------------------7--|--L--------------------|--5------7----L------|-------------------|


W Q. H E W Q. H E
-------------------|---------------------|-------------------|---------------------|
-------------------|--4------6--------4--|--L----------------|--4------6--------4--|
-------------------|--3------5--------3--|--L----------------|--3------5--------3--|
-------------------|--6------8--------5--|--L----------------|--6------8--------5--|
-------------------|---------------------|-------------------|---------------------|
-------------------|--5------7--------0--|--L----------------|--5------7--------0--|


W Q. H E H H W
-------------------|---------------------|---------------------|-------------------|
--L----------------|--4------6--------4--|--L--------11--------|--9----------------|
--L----------------|--3------5--------3--|--L--------10--------|--8----------------|
--L----------------|--6------8--------5--|--L--------10--------|--8----------------|
-------------------|---------------------|---------------------|-------------------|
--L----------------|--5------7--------0--|--L--------10--------|--8----------------|


^ ^
W S S S S S S S S S S S S S S S S
-------------------||-------------------------------------------|
-------------------||-------------8--x--------------4-----------|
-------------------||*----------x----x-10---------3---x---------|
-------------------||*-----(x)-------x------0---3-----x-5-----6-|
-------------------||---------------------------------x---------|
-------------------||---0-----------------x---3-----------(3)---|


^ ^ ^ ^ ^
S S S S S S S S S T T S S S S S S S S S S S E S S S S S S S S S
--------------------------------------------||--------------------------------------|
--------4--x-----------------9-----------8--||-------------8--------------4-x-------|
------3----x-3-------------8---0-------7---*||*----------x-8-x-8------3-3-3-x-----3-|
----6------x-------(x)---8----------10-----*||*-----(x)------x-8--0---3-3---x-5---6-|
--------------------------------------------||--------------------------------------|
--5-L----------(5)-----8---------10---------||---0------------------3-------------5-|


^ ^ ^
S S S S S S E S S S S S S S S 4x E. E. Q Q E E Q Q Q.
-------------------------------------||-------------------------|-----------------------|
--------4-x-4--------9---------8-----||----------6~----L~-------|----------6----L~------|
--------3-x-3------8-8---------7--7-*||------5------------------|-----5-----------------|
----6-----x-6-x----8---x----10---10-*||--8-------------------8--|--L--------------------|
-------------------------------------||-------------------------|-----------------------|
--L-----------8----------10----------||--8-------------------7--|--L--------------------|


W W W
E. E. Q Q. H H E. E. Q Q E E Q Q Q.
----------------------|--------------------|-------------------------|-----------------------|
----------4----L------|--L-----------------|----------6~----L~-------|----------6----L~------|
------3---------------|--------------------|------5------------------|-----5-----------------|
--6-------------------|--------------------|--8-------------------8--|--L--------------------|
----------------------|--------------------|-------------------------|-----------------------|
--6-------------------|--------------------|--8-------------------7--|--L--------------------|


Q. Q Q. H E E Q Q. H E
---------------------|-------------------------||----------------------|
--4------6----L------|--4--------11-----11\----||---4------6--------7--|
--3------5----L------|--5--------10-----10\----||*--5------7--------8--|
--6------8----L------|--6--------10-----10\----||*--6------8--------9--|
---------------------|-------------------------||----------------------|
--5------7----L------|-----------10-----10\----||---5------7--------8--|


Q. H E Q. H E Q. Q. Q
-----------------------||-----------------------|---------------------|
----------9------------||----------9---------L--|--4------6------7----|
---------10-----------*||---------10---------L--|--5------7------8----|
---------11-----------*||---------11---------L--|--6------8------9----|
-----------------------||-----------------------|---------------------|
---------10------------||---------10---------L--|--5------7------8----|


E Q. E E S E S S Q S S S S S S S S S S S
----------------------------||-----------------------------------|
--L---9---------12----12----||---------------8-8-------------8-8-|
--L--10---------12----12----||*--------------8-8---x---x-7-x-8-8-|
--L--11---------12----12----||*--------------8-8---x-----7-x---8-|
----------------------------||-----------------------------------|
--L--10---------11----11----||---(0)h-7--------------------------|


S S S S S S S S S S S S E E S S S S S S S S S S S S E E
--------------------------------------8---||--------------------------------8--|
----------8------8-8------11----8-8b--8---||----8-x-8---8-x-----11----8-8b--8--|
----( ---8-x-x----8------------7-----7--*||----8-x-8---8-x---x-------7-----7--|
----( ---8-x-x-10-----------------------*||----8-x-8---------x----------------|
------------------------------------------||-----------------------------------|
---------------------(0)h-10--L-----------||--------------------10--L----------|


W W W
E. E. Q Q E E Q Q Q. E. E. Q Q. H H
-------------------------|-----------------------|----------------------|--------------------|
----------6~----L~-------|----------6----L~------|----------4----L------|--L-----------------|
------5------------------|-----5-----------------|------3---------------|--------------------|
--8-------------------8--|--L--------------------|--6-------------------|--------------------|
-------------------------|-----------------------|----------------------|--------------------|
--8-------------------7--|--L--------------------|--6-------------------|--------------------|


E. E. Q Q E E Q Q Q. Q. Q Q.
-------------------------|-----------------------|---------------------|
----------6~----L~-------|----------6----L~------|--4------6----L------|
------5------------------|-----5-----------------|--3------5----L------|
--8-------------------8--|--L--------------------|--6------8----L------|
-------------------------|-----------------------|---------------------|
--8-------------------7--|--L--------------------|--5------7----L------|


H E E Q W W W
-------------------------||--------------------|--------------------||--------------------|
--4--------11-----11\----||--------------------|--------------------||--------------------|
--5--------10-----10\----||*-------------------|-------------------*||*-------------------|
--6--------10-----10\----||*-------------------|-------------------*||*-------------------|
-------------------------||--------------------|--------------------||--------------------|
-----------10-----10\----||--------------------|--------------------||--------------------|


^ ^
S S S S S S S S S S S S Q
--8-10-11---------8-10-11---------------||
----------8h-10-----------8h-10---------||
---------------------------------------*||
---------------------------------------*||
----------------------------------------||
----------------------------------------||




Duration Legend
---------------
W - whole
H - half
Q - quarter
E - 8th
S - 16th
T - 32nd
X - 64th
. - note dotted
|-n-| - n-tuplets


Tablature Legend
----------------
L - tied note
x - dead note
g - grace note
(n) - ghost note
> - accentuded note
NH - natural harmonic
AH - artificial harmonic
TH - tapped harmonic
SH - semi harmonic
PH - pitch harmonic
h - hammer on
p - pull off
b - bend
br - bendRelease
pb - preBend
pbr - preBendRelease
brb - bendReleaseBend
\n/ - tremolo bar dip
\n - tremolo bar dive
-/n - tremolo bar Release up
/n\ - tremolo bar inverted dip
/n - tremolo bar return
-\n - tremolo bar Release down
S - shift slide
s - legato slide
/ - slide into from below or out of upwards
\ - slide into from above or out of downwards
~ - vibrato
W - wide vibrato
tr - trill
TP - tremolo picking
T - tapping
S - slap
P - pop
^ - brush up
v - brush down
comments
We did not receive enough feedback on this tab! Please rate:
print report bad tab
1 2 3 4 5
I want to post or [tab]
guest
You may want to rate the tab now too:
select rating
Please do not post tabs as comments. Select "correction" instead!