Oops, an error
Loading. Please wait.

New Deep Tab

version 1
version 1

Whole song

Interactive

35,967 views 30 this week
6 commentsread comments
1 2 3 4 5
excellent!
x 18
add to favorites
launch autoscroll
font size
0
reset
how to read this tab
guitar tuner
Autoscroll
slow
fast
+/-
esc
set tempo
stop
Help us to improve Ultimate-Guitar.com Take our survey!
×
Author
New Deep
Words and Music by John Mayer


Transcribed by: Gabe
AIM: JMFan70
Email: SupraSlick15_14@Juno.com

I saw this song played a while back so I decided to tab it. This tab id pretty straight 
Its really easy to play. For all you with electric guitars flip your switches to the 
position for that crisp sound.


Key:
x -Muted String


Intro

e----------------------------2-------|
b---10------10------8--------3(x5)---|
g----9(x3)---9(x5)--7(x3)----4-------|
d---12------11-----10----------------|
a------------------------------------|
e------------------------------------|


e------------------------------------|
b---10------10------8------8---------|
g----9(x3)---9(x5)--7(x3)--7(x5)-----|
d---12------11-----10------9---------|
a------------------------------------|
e------------------------------------|

Verse 1&2

e----------------------------2-------|
b---10------10------8--------3(x5)---|
g----9(x3)---9(x5)--7(x3)----4-------|
d---12------11-----10----------------|
a------------------------------------|
e------------------------------------|


e------------------------------------|
b---10------10------8------8---------|
g----9(x3)---9(x5)--7(x3)--7(x5)-----|
d---12------11-----10------9---------|
a------------------------------------|
e------------------------------------|


Chorus

e-----------------|
b--7--7--8--5--5--|
g--0--0--0--7--6--|
d--7--7--7--7--7--|
a--5--x--x--x--x--|
e--x--7--0--5--5--|
"Numb is the new deep..."

Bridge

e-----------------|
b--2---3---3---2--|
g--2---2---2---2--|
d--0---4---4---2--|
a--x---3---2---0--|
e--2--------------|
"Im a new man..."
Play 4 times

e-----------------|
b----8------8-----|
g----7(x3)--7(x5)-|
d---10------9-----|
a-----------------|
e-----------------|


Outro

e---------------|
b--3--3---3--2--|
g--0--2---0--2--|
d--x--0---0--2--|
a--2--x---x--0--|
e--0--2---3--x--|
"Stop trying to figure it out...."
Play this part twice then go back to intro!

Outro part II

e--x----x----x----x--|
b--7---14---13---12--|
g--x----x----x----x--|
d--7---14---12---12--|
a--5---12---10---10--|
e--x----x----x----x--|
play this along with the intro chords, you can really hear when this part comes in 
the end.


There you have it 100% correct! :-)
Suggest correction
comments
print report bad tab
6 comments total. Showing first comments.
0 reply
justin_fraser 50 wrote on June 21 2009, 01:37 am

nice tab

+2 reply
Nabokov 20 wrote on July 2 2009, 04:08 pm

Intro
instead of :
e----------------------------2-------|
b---10------10------8-------3(x5)---|
g----9(x3)---9(x5)---7(x3)----4-------|
d---12------11-----10----------------|
a------------------------------------|
e------------------------------------|


you could play:
Intro

e------------------------------------|
b---10------10------8-------7-------|
g----9(x3)---9(x5)---7(x3)---- 7(x5)----|
d---12------11-----10-------9-------|
a------------------------------------|
e------------------------------------|


it's just easier to get to but great job

0 reply
will_petersen 30 wrote on July 5 2009, 09:54 am

nice job, great song

guest
You may want to rate the tab now too:
select rating
Wanna post a correction for this tab? Suggest correction