Oops, an error
Loading. Please wait.

No Such Thing Bass Tab

version 2
version 2
33,467 views 84 this week
1 commentread comment
1 2 3 4 5
x 6
add to favorites
launch autoscroll
font size
0
reset
guitar tuner
×
Best way to learn
"No Such Thing"
Autoscroll
slow
fast
+/-
esc
set tempo
stop
Author
Difficulty
  follow
intermediate
Tuning: E A D G

[Intro] 
(Played at beginning of first verse only)
G|-----/9-----------------------------------------------------------|
D|----------------------------------7-----------------7-------------|
A|------------7-----------------7-9-----------------9---------------|
E|------------------------------------------------------------------|
              Welcome to the real world...

G|-------------------------------------------------------|
D|----------4/11-----------------------------------------|
A|--9\4------------------------7-7-7-7-7-9-9-9-7-7-7-7-7-|
E|-------------------------------------------------------|
          ...take your life...

[Verse]           
G|----------------------------------------------2h4p2----2p0h2p0h2--|
D|-----------------------------------------2h4----------------------|
A|------------2h4---------------2h4--0---0--------------------------|
E|0-----0-2-4----0--0-----0-2-4-------------------------------------|


G|/6--6-6-4\2-----2/4-6-----------------------|
D|-----------4---4--------------2---4---2h4---|
A|------------4------------4------------------|
E|--------------------------------------------|
                       ...up   my  sleeve...

[Pre-Chorus]
G|------------------------------0h2--------------------|
D|----------------------------------4-2--2-2-2-2-2-2---|
A|0-0-000-0-0-000-0-0-000-0-0-00-------4------------4-2|
E|-----------------------------------------------------|
...enough to...              ...the lines...

G|----------------------------------------------2---1---------------------|
D|--2---------------2-2-2-2-----------------------------4---2-2-2-2-2-/14-|
A|0-----4---2--0------------4-4-4/9---7h9--\0-----------------------------|
E|------------------------------------------------------------------------|
                   ...but somethings better on the other side...

[Chorus]
G|------------------------------------------------------------------------|
D|------------------2---2-2-2-2-2-------------2---2-2-2-2-2/14-14-14\-----|
A|----------0--0-2-4---4--------------2-0--0-2-4---4----------------------|
E|-------------------------------0-2-4------------------------------------|
 ...I wanna...

G|------------------------------------------------------------------------|
D|------------------2---2-2-2-0-2-------------2---2-2-2-------------------|
A|----------0--0-2-4---4----------------0--0-2-4---4----------------------|
E|-------------------------------0-2-4------------------------------------|

...Then go back to the verse - then the prechorus & chorus - then the bridge:

[Bridge]
   2:26      | repeat 3 times   |
G|-----------|------------------|------------------------------------------|
D|-----9h11p9|---------7--9h11p9|---------7--7---5-5-5-5-5-0-5-0-5-0-5-0-5-|
A|-8---------|-8-8h10-----------|-8-8h10-----------------------------------|
E|-----------|------------------|------------------------------------------|

[Chorus]
G|------------------------------------------------------------------------|
D|------------------2---2-2-2-2-2-------------2---2-2-2-2-2/14-14-14\-----|
A|----------0--0-2-4---4--------------2-0--0-2-4---4----------------------|
E|-------------------------------0-2-4------------------------------------|
 ...I wanna...

G|------------------------------------------------------------------------|
D|------------------2---2-2-2-0-2-------------2---2-2-2-------------------|
A|----------0--0-2-4---4----------------0--0-2-4---4----------------------|
E|-------------------------------0-2-4------------------------------------|



************************************

| /  Slide up
| \  Slide down
| h  Hammer-on
| p  Pull-off

************************************
Suggest correction
comments
print report bad tab
1 comment total.
0 reply
LithiumEnergy 73 Apr 22, 2013 05:28 PM

After returning to the verse after the chorus, the ending at the 'Up my sleeve' part is the same as the ending to the intro. So:

G|/6--6-6-4\2-----2/4-6----------------------------------|
D|-----------4---4---------------------------------------|
A|------------4----------------7-7-7-7-7-9-9-9-7-7-7-7-7-|
E|-------------------------------------------------------|

guest
You may want to rate the tab now too:
select rating
Wanna post a correction for this tab? Suggest correction