Oops, an error
Loading. Please wait.

No Such Thing Tab

version 2
version 2
26,490 views 6 this week
4 commentsread comments
1 2 3 4 5
worth learning
x 6
add to favorites
launch autoscroll
font size
0
reset
how to read this tab
guitar tuner
Tab Pro tools
  • play this tab
  • loop segment
  • change instrument
  • show fretboard
  • metronome
×
Best way to learn
"No Such Thing"
Autoscroll
slow
fast
+/-
esc
set tempo
stop
Contributor
Difficulty
intermediate
Hey,  this is a great song by John Mayer.  I'm Pretty sure this is right

Intro: Emaj7
e|---------------|
B|-----9---9-9-9-|
G|-----8---8-8-8-|x4
D|-----9---9-9-9-|
A|---7-7-7-7-7-7-|
E|---------------|

Verse:  Emaj                  Amaj7       C#min7      Em9
e|----------------------------------------------------------------|
B|-----9---9-9-9---9---9-9-9----5---5-5-5---5---5-5-5---9---9-9-9-|
G|-----8---8-8-8---8---8-8-8----6---6-6-6---4---4-4-4---9---9-9-9-|
D|-----9---9-9-9---9---9-9-9----6---6-6-6---6---6-6-6---7---7-7-7-|
A|---7-7-7-7-7-7-7-7-7-7-7-7----x---x-x-x-4-4-4-4-4-4-9-9-9-9-9-9-|
E|----------------------------5-5-5-5-5-5-------------------------|

  Emaj                        Amaj7       C#min7        F#9
e|--------------------------------------------------------------|
B|-----9---9-9-9---9---9-9-9----5---5-5-5---5---5-5-5---9-9-9-9-|
G|-----8---8-8-8---8---8-8-8----6---6-6-6---4---4-4-4---9-9-9-9-|
D|-----9---9-9-9---9---9-9-9----6---6-6-6---6---6-6-6---8-8-8-8-|
A|---7-7-7-7-7-7-7-7-7-7-7-7----x---x-x-x-4-4-4-4-4-4---9-9-9-9-|
E|----------------------------5-5-5-5-5-5-----------------------|

Pre Chorus:
   Amaj7                           Emaj7
e|-------------------------------------------------|
B|-5-5-5-5-5-5-5-5-5-5-5-5-5-5-5-5-9-9-9-9-9-9-9-9-|
G|-6-6-6-6-6-6-6-6-6-6-6-6-6-6-6-6-8-8-8-8-8-8-8-8-|
D|-6-6-6-6-6-6-6-6-6-6-6-6-6-6-6-6-9-9-9-9-9-9-9-9-|
A|-x-x-x-x-x-x-x-x-x-x-x-x-x-x-x-x-7-7-7-7-7-7-7-7-|
E|-5-5-5-5-5-5-5-5-5-5-5-5-5-5-5-5-----------------|
   F#9             Amaj7           Emaj7
e|-9-9-9-9-9-9-9-9------------------------------|
B|-9-9-9-9-9-9-9-9-5-5-5-5-5-5-5-5---9---8-8-8--|
G|-9-9-9-9-9-9-9-9-6-6-6-6-6-6-6-6---8---9-9-9--|
D|-8-8-8-8-8-8-8-8-6-6-6-6-6-6-6-6---9---8-8-8--|
A|-9-9-9-9-9-9-9-9-x-x-x-x-x-x-x-x-7-7-7-7-7-7--|
E|-----------------5-5-5-5-5-5-5-5--------------|


Chorus:
Amin7 D9  Emaj7
e|-----5--------------|
B|---5-5----9---9-9-9-|
G|---5-5----8---8-8-8-|
D|---5-4----9---9-9-9-|   x4
A|---x-5--7-7-7-7-7-9-|
E|-5-5----------------|

Verse:  Emaj                  Amaj7       C#min7      Em9
e|----------------------------------------------------------------|
B|-----9---9-9-9---9---9-9-9----5---5-5-5---5---5-5-5---9---9-9-9-|
G|-----8---8-8-8---8---8-8-8----6---6-6-6---4---4-4-4---9---9-9-9-|
D|-----9---9-9-9---9---9-9-9----6---6-6-6---6---6-6-6---7---7-7-7-|
A|---7-7-7-7-7-7-7-7-7-7-7-7----x---x-x-x-4-4-4-4-4-4-9-9-9-9-9-9-|
E|----------------------------5-5-5-5-5-5-------------------------|

  Emaj                        Amaj7       C#min7        F#9
e|--------------------------------------------------------------|
B|-----9---9-9-9---9---9-9-9----5---5-5-5---5---5-5-5---9-9-9-9-|
G|-----8---8-8-8---8---8-8-8----6---6-6-6---4---4-4-4---9-9-9-9-|
D|-----9---9-9-9---9---9-9-9----6---6-6-6---6---6-6-6---8-8-8-8-|
A|---7-7-7-7-7-7-7-7-7-7-7-7----x---x-x-x-4-4-4-4-4-4---9-9-9-9-|
E|----------------------------5-5-5-5-5-5-----------------------|

Pre Chorus:
   Amaj7                           Emaj7
e|-------------------------------------------------|
B|-5-5-5-5-5-5-5-5-5-5-5-5-5-5-5-5-9-9-9-9-9-9-9-9-|
G|-6-6-6-6-6-6-6-6-6-6-6-6-6-6-6-6-8-8-8-8-8-8-8-8-|
D|-6-6-6-6-6-6-6-6-6-6-6-6-6-6-6-6-9-9-9-9-9-9-9-9-|
A|-x-x-x-x-x-x-x-x-x-x-x-x-x-x-x-x-7-7-7-7-7-7-7-7-|
E|-5-5-5-5-5-5-5-5-5-5-5-5-5-5-5-5-----------------|
   F#9             Amaj7           Emaj7
e|-9-9-9-9-9-9-9-9------------------------------|
B|-9-9-9-9-9-9-9-9-5-5-5-5-5-5-5-5---9---8-8-8--|
G|-9-9-9-9-9-9-9-9-6-6-6-6-6-6-6-6---8---9-9-9--|
D|-8-8-8-8-8-8-8-8-6-6-6-6-6-6-6-6---9---8-8-8--|
A|-9-9-9-9-9-9-9-9-x-x-x-x-x-x-x-x-7-7-7-7-7-7--|
E|-----------------5-5-5-5-5-5-5-5--------------|

Chorus:

e|-----5--------------|
B|---5-5----9---9-9-9-|
G|---5-5----8---8-8-8-|
D|---5-4----9---9-9-9-|   x4
A|---x-5--7-7-7-7-7-9-|
E|-5-5----------------|

Bridge
   Fm7      Aadd2 Fm7   Aadd2 Fm7    Aadd2 Fm7  Aadd2  G
e|-0-----0--0-----0-----0-----0------0-----0----0------3----------|
B|-0-----0--2-----0-----2-----0------2-----0----2------0----------|
G|-2-----2--2-----2-----2-----2------2-----2----2------0-let ring-|
D|-3-----3--0-----3-----0-----3------0-----3----0------0----------|
A|-3-----3--------3-----------3------------3-----------2----------|
E|-1-----1--------1-----------1------------1-----------3----------|

Just strum on Amaj7 for 4bars
e|-----------|
B|---5-5-5-5-|
G|---6-6-6-6-|
D|---6-6-6-6-|
A|---x-x-x-x-|
E|---5-5-5-5-|


e|-------------------------9-9-9-9-9-9-9-9-----------------|
B|---9---9-9-9---9---9-9-9-9-9-9-9-9-9-9-9-5-5-5-5-5-5-5-5-|
G|---8---8-8-8---8---8-8-8-9-9-9-9-9-9-9-9-6-6-6-6-6-6-6-6-|
D|---9---9-9-9---9---9-9-9-8-8-8-8-8-8-8-8-6-6-6-6-6-6-6-6-|
A|-7-7-7-7-7-7-7-7-7-7-7-7-9-9-9-9-9-9-9-9-x-x-x-x-x-x-x-x-|
E|-----------------------------------------5-5-5-5-5-5-5-5-|

Chorus:

e|-----5--------------|
B|---5-5----9---9-9-9-|
G|---5-5----8---8-8-8-|
D|---5-4----9---9-9-9-|   x4
A|---x-5--7-7-7-7-7-9-|
E|-5-5----------------|

Thats it... there is a couple of random riffs here and there but i've just written the 
which sounds just as good...

Enjoy!
comments
print report bad tab
4 comments total. Showing first comments.
0 reply
James Jarvis wrote on July 1 2009, 02:51 am

sound ok i guess ill give you 4 stars

0 reply
PPjamie wrote on July 2 2009, 06:36 am

Pretty close i have to say.

0 reply
Slowhand17 wrote on July 23 2009, 12:36 am

Your intro is way off, John Mayer plays it more like this
e---------- ----- ----------
b---------- ----- ----------
g-----11--- x 5 ---x- x5 -----11---
d-----13--- ---14 -----13---
a-----11--- ---11 -----11---
e-0-0------ -0-- -0-0------

I want to post or [tab]
guest
You may want to rate the tab now too:
select rating
Please do not post tabs as comments. Select "correction" instead!