Oops, an error
Loading. Please wait.

No Such Thing Bass Tab

version 3
version 3
3,000 views 1 this week
no commentswrite comment
1 2 3 4 5
2 more votes to show rating
add to favorites
launch autoscroll
font size
0
reset
guitar tuner
Autoscroll
slow
fast
+/-
esc
set tempo
stop
Help us to improve Ultimate-Guitar.com Take our survey!
×
Author
JOHN MAYER - NO SUCH THING
    (Tabbed by w7w7w7)



Intro
G|-----------------------------------------------------------------------|
D|--------------------------------------------------------/14------------|
A|-----------------------------------------------------------------------|
E|-----------------------------------------------------------------------|



Verse #1
G|-----------------------------------------------------------------------|
D|-----------------------------------------------------------------------|
A|-7---7---7-9-11-12---12---12------12---12---12---12\4---4---4---4/16---|
E|-------------------------------12--------------------------------------|
  "Welcome to the real world..."

G|-----------------------------------------------------------------------|
D|-----------------------------------------------------------------------|
A|-16---16---16--\7-7-7-7-7-7-7-7/9-9-9-7-------7-----------2-4----------|
E|-----------------------------------------------70-----0-4-----0-0------|


G|-----------------------------------------------------------------------|
D|---------------------7-9-7-7----7-7-7-9-9h11---11-11-9-----------------|
A|-------2-4--------/9-----------7-7---------------------11-9------------|
E|-0-0-4-----5-5---5------------------------------------------9----------|
  "Well I never..."

G|-----------------------------------------------------------------------|
D|------11-11-----4-------4-------4-4------------------------------------|
A|-9-11------\4-------4---------4----------------------------------------|
E|-----------------------------------------------------------------------|



Bridge
G|-----------------------------------------------------------------------|
D|---------------7---------------7---------------7---------7-6-4---------|
A|---------------------------------------------------------------4-------|
E|-5-5-5--05-5-5---5-5-5--05-5-5---5-5-5--05-5-5---5-5-5-----------------|
   "They love to tell you..."

G|-----------------------------------------------------------------------|
D|-2-2-2-2-------2-------------------------------------------------------|
A|---------4-2-------4---2-----------------------------------------------|
E|-------------4-------------4-------------------------------------------|


G|-----------------------------------------------------------------------|
D|-4-4-4---4-4-4---4-4-4---4-4-4-----------7-7-7-7-6-6-6-6---------------|
A|--------4---------------4---------------7----------------9-9-9-9-------|
E|---------------------------------5-5-5---------------------------------|
   "But something's better..."

G|-----------------------------------------------------------------------|
D|--------------/14------------------------------------------------------|
A|-7-7-7-7-7-7-7---------------------------------------------------------|
E|-----------------------------------------------------------------------|



Chorus
G|-----------------------------------------------------------------------|
D|-------------------------------------------------9/14---14-------------|
A|-------------7---7-7---7---7---------------7---7-----------------------|
E|-5---5-8-8-7---------7---7---4-5---5-9-9-7-----------------------------|
  "I wanna run through..."

G|-----------------------------------------------------------------------|
D|-----------------------------------------------------------------------|
A|-------------7---7-7---7---7---------------7---------------------------|
E|-5---5-8-8-7---------7---7---4-5---5-9-9-7-----------------------------|
  "I just found out..."



Verse #2
G|-----------------------------------------------------------------------|
D|---------------------------------------------6-7-7----7-7-7-9-9h11-----|
A|-7-----------2-4-------------2-4-----------9---------7-7---------------|
E|---0-0---0-4-----0-0---0-0-4-----5-5---4-5-----------------------------|
   "So the good boys..."

G|-----------------------------------------------------------------------|
D|-11-11-9-----------------11-11-----------------------------------------|
A|---------11-9-------9-11------\4-----7---7---7---7---9-9-9-7----7------|
E|--------------9------------------------------------------------7-------|


G|-----------------------------------------------------------------------|
D|---------------------------------------------6-7-7----7-7-7-9-9h11-----|
A|-------------2-4---------7-7---------------9---------7-7---------------|
E|-7-0-0---0-4-----0-0--/7-----9-7-5-5---4-5-----------------------------|
   "And all of our parents..."

G|-----------------------------------------------------------------------|
D|-11-11-9-----------------11-11-----4-------4-------4-4-----------------|
A|---------11-9-------9-11------\4-------4---------4---------------------|
E|--------------9--------------------------------------------------------|



Bridge (same as the first one)
G|-----------------------------------------------------------------------|
D|---------------7---------------7---------------7---------7-6-4---------|
A|---------------------------------------------------------------4-------|
E|-5-5-5--05-5-5---5-5-5--05-5-5---5-5-5--05-5-5---5-5-5-----------------|
   "They love to tell you..."

G|-----------------------------------------------------------------------|
D|-2-2-2-2-------2-------------------------------------------------------|
A|---------4-2-------4---2-----------------------------------------------|
E|-------------4-------------4-------------------------------------------|


G|-----------------------------------------------------------------------|
D|-4-4-4---4-4-4---4-4-4---4-4-4-----------7-7-7-7-6-6-6-6---------------|
A|--------4---------------4---------------7----------------9-9-9-9-------|
E|---------------------------------5-5-5---------------------------------|
   "But something's better..."

G|-----------------------------------------------------------------------|
D|--------------/14------------------------------------------------------|
A|-7-7-7-7-7-7-7---------------------------------------------------------|
E|-----------------------------------------------------------------------|



Chorus (same as the first one except the very end)
G|-----------------------------------------------------------------------|
D|-------------------------------------------------9/14---14-------------|
A|-------------7---7-7---7---7---------------7---7-----------------------|
E|-5---5-8-8-7---------7---7---4-5---5-9-9-7-----------------------------|
  "I wanna run through..."

G|-----------------------------------------------------------------------|
D|-----------------------------------------------------------------------|
A|-------------7---7-7---7---7---------------7---7-7---7---7-7-----------|
E|-5---5-8-8-7---------7---7---4-5---5-9-9-7-----------------------------|
  "I just found out..."



Break
G|-----------------------------------------------------------------------|
D|-------10/12\10---------------------9/11\9-----------------------------|
A|-8--------------8-----8/10---12------------8-----8/10------------------|
E|-----------------------------------------------------------------------|


G|-----------------------------------------------------------------------|
D|-------10/12\10---------------------9/11\9-----------------------------|
A|-12-------------8-----8/10---12------------8-----8/10------------------|
E|-----------------------------------------------------------------------|
   "I am invincible..."

G|-----------------------------------------------------------------------|
D|-----------------------------------------------------------------------|
A|-12----12----10-10-10-10-10----10----10----10----10----10--------------|
E|----------------------------10----10----10----10----10----10-----------|



Bridge #2
G|-----------------------------------------------------------------------|
D|---------------------------------------------------------7-6-4---------|
A|---------------------------------------------------------------4-------|
E|-5-5-5--05-5-5--05-5-5--05-5-5--05-5-5--05-5-5--05-5-5--0--------------|
   "They love to tell you..."

G|-----------------------------------------------------------------------|
D|-2-2-2-2---------------------------------------------------------------|
A|---------4-2---2-----------2-------------------------------------------|
E|-------------4-----0---4-----------------------------------------------|


G|-----------------------------------------------------------------------|
D|-4-4-4---4-4-4---4-4-4---4-4-4-----------7-7-7-7-6-6-6-6---------------|
A|--------4---------------4---------------7----------------9-9-9-9-------|
E|---------------------------------5-5-5---------------------------------|



End : variations on chorus, x2
Suggest correction
Give kudos to tab author, rate the tab!
1 2 3 4 5
comments
print report bad tab
guest
You may want to rate the tab now too:
select rating
Wanna post a correction for this tab? Suggest correction