Oops, an error
Loading. Please wait.

No Such Thing Bass Tab

version 4
version 4
3,319 views 1 this week
no commentswrite comment
1 2 3 4 5
please rate
add to favorites
launch autoscroll
font size
0
reset
guitar tuner
Autoscroll
slow
fast
+/-
esc
set tempo
stop
Help us to improve Ultimate-Guitar.com Take our survey!
×
Author
Difficulty
intermediate
-----------------------------------------------------------------------------
			     NO SUCH THING - John Mayer
-----------------------------------------------------------------------------


Tabbed By : Andrew Tufano
e-mail: andrew.tufano@gmail.com

This is an adaptation of this cover video: http://www.youtube.com/watch?v=E4hwe2Y_NrU

Basically, what me and my band play. Not 100 percent with the song, but we like the sound of it.


G|-----------------------------------------------------------------|
D|-----/14------------------------4-6-7-----------7---7------------|
A|------------7-------------------------------------7--------------|
E|-----------------------------------------------------------------|
	      Welcome to the real world...

G|---------6-------------------------------------------------------|
D|-----------------------------------------------------------------|
A|--7\4------------------------7-7-7-7-7-7-7-7-10---9---7----------|
E|-----------------------------------------------------------------|
	  ...take your life...

 Verse 1:

G|-------------------------------------------------------------------|
D|----------------2--------------------2h4-----------9h11-11---------|
A|------------2h4---------2h4-0--0-2/4-----0-0—9h11------------------|
E|0-----0-2/4-------0-2/4--------------------------------------------|
               ...I never...

G|--------------------------------------------------------------------|
D|-11-9h11-9----------------11-11--------4----------------------------|
A|-----------11-9------9-11------------4------------------------------|
E|----------------9----------------9\2--------------------------------|
   1 (2)+  3 +  4 + (1)2 +  3  +   4 1

                                  ...up my sleeve...


 Prechorus:

G|---------------------------------------------------------------|
D|------------------------------------------------2-2------------|
A|0-0-0-00-0-0-00-0-0-00-0-0-00-0-0----------2-4-------4--2------|
E|-----------------------------------0-0-2/4------------------4--|
...I love to...	             ...the lines...

G|-------------------------------------------------------------------------|
D|-------------------------------------------------------------------------|
A|---------------4/9-9-9-99-9-9-9-----0-0-0-0-12-12-12-12-11-11-11-9-9-9-9-|
E|0-2-2-2-22-2-2-----------------------------------------------------------|
...but somethings better on the other side...

G|------------------------------------------------------------------------|
D|------------------------------------------------------------------------|
A|---7---7-7-7-7---7------------------------------------------------------|
E|---------------7--------------------------------------------------------|


 Chorus:

G|------------------------------------------------------------------------|
D|------------------------------------------------------------------------|
A|-----------5-5---7-7---7---7----------5-5---7-6-4-----------------------|
E|----5--5-7-----7-----7---7---4-5--5-7-----7-------7---------------------|
 ...I wanna run...      ...I wanna scream...

G|------------------------------------------------------------------------|
D|------------------------------------------------------------------------|
A|-------------5-5---7--7------------------5-5---7------------------------|
E|--4h5--5-5h7-----7------7-0--2-4--5--5-7-----7--------------------------|
 ...I just found out...      ...I wanna scream...

Verse 2:

G|-------------------------------------------------------------------|
D|----------------2--------------------2h4-----------9h11-11---------|
A|------------2h4---------2h4-0--0-2/4-----0-0—9h11------------------|
E|0-----0-2/4-------0-2/4--------------------------------------------|


G|-------------------------------------------------------------------|
D|-11-9h11-9----------------11-11------------------------------------|
A|-----------11-9------9-11--------7-7-7-7-7-7-7-7-10-10-10-9-9-7-7-7|
E|----------------9--------------------------------------------------|


G|-------------------------------------------------------------------|
D|----------------2--------------------2h4-----------9h11-11---------|
A|------------2h4---------2h4-0--0-2/4-----0-0—9h11------------------|
E|0-----0-2/4-------0-2/4--------------------------------------------|


G|--------------------------------------------------------------------|
D|-11-9h11-9----------------11-11--------4----------------------------|
A|-----------11-9------9-11------------4------------------------------|
E|----------------9----------------9\2--------------------------------|
   1 (2)+  3 +  4 + (1)2 +  3  +   4 1

                                  ...up my sleeve...


 Prechorus:

G|---------------------------------------------------------------|
D|------------------------------------------------2-2------------|
A|0-0-0-00-0-0-00-0-0-00-0-0-00-0-0----------2-4-------4--2------|
E|-----------------------------------0-0-2/4------------------4--|

G|--------------------------------------------------------------------------|
D|--------------------------------------------------------------------------|
A|---------------4/9-9-9-99-9-9-9------0-0-0-0-12-12-12-12-11-11-11-9-9-9-9-|
E|0-2-2-2-22-2-2------------------------------------------------------------|

G|------------------------------------------------------------------------|
D|------------------------------------------------------------------------|
A|---7---7-7-7-7---7------------------------------------------------------|
E|---------------7--------------------------------------------------------|


 Chorus:

G|------------------------------------------------------------------------|
D|------------------------------------------------------------------------|
A|-----------5-5---7-7---7---7----------5-5---7-6-4-----------------------|
E|----5--5-7-----7-----7---7---4-5--5-7-----7-------7---------------------|
 ...I wanna run...      ...I wanna scream...

G|------------------------------------------------------------------------|
D|------------------------------------------------------------------------|
A|-------------5-5---7--7------------------5-5---7------------------------|
E|--4h5--5-5h7-----7------7-0--2-4--5--5-7-----7--------------------------|
 ...I just found out...      ...I wanna scream...

Bridge:

G|----------------------------------------------------------------------------|
D|--------10/12\10--------------9/11\9-------------9/11/9-------------9/11/9|-|
A|--8---8----------8—10-12-------------8-8-8-10-12--------8-8-8-10-12---------|
E|----------------------------------------------------------------------------|

G|------------------------------------------------------------------------|
D|------------------------------------------------------------------------|
A|-8-8-8-10-12--10-10-10----10-10-10----10-10-10----10-10-10----10-10-10--|
E|------------------------10----------10----------10----------10--------10|


Post Bridge:

G|----------------------------------------------------------------------------|
D|---------------------------------------------------------------7-6-4--------|
A|---------------------------------------------------------------------6-7----|
E|-5-5-5--55-5-5--55-5-5--55-5-5--55-5-5--55-5-5--55-5-5--55-5-5—-------------|

G|------------------------------------------------------------------------------|
D|------------------------------------------4--4---4---4------------------------|
A|-7--7-7----------------2-----------4--4-4------4---4---4--0-0-12-12-11-11-9-9-|
E|--------7-5-4-0--2--4-----4-2--2-2--------------------------------------------|

Chorus:

G|------------------------------------------------------------------------|
D|------------------------------------------------------------------------|
A|-----------5-5---7-7---7---7----------5-5---7-6-4-----------------------|
E|----5--5-7-----7-----7---7---4-5--5-7-----7-------7---------------------|
 ...I wanna run...      ...I wanna scream...

G|------------------------------------------------------------------------|
D|------------------------------------------------------------------------|
A|-------------5-5---7--7------------------5-5---7------------------------|
E|--4h5--5-5h7-----7------7-0--2-4--5--5-7-----7--------------------------|
 ...I just found out...      ...I wanna scream...

Very end just strum open e string


| /  slide up
| \  slide down
| h  hammer-on
| p  pull-off
| ~  vibrato
| +  harmonic
| x  Mute note
===============================================================================
Suggest correction new What's this?
You can suggest a correction to this tab. Community and Mods will review your correction and vote to approve or reject it.
comments
We did not receive enough feedback on this tab! Please rate:
print report bad tab
1 2 3 4 5
guest
You may want to rate the tab now too:
select rating
Please do not post tabs as comments. Select "correction" instead!