Oops, an error
Loading. Please wait.

No Woman No Cry Tab

61,777 views 30 this week
1 commentread comment
1 2 3 4 5
excellent!
x 13
add to favorites
launch autoscroll
font size
0
reset
how to read this tab
guitar tuner
Autoscroll
slow
fast
+/-
esc
set tempo
stop
Help us to improve Ultimate-Guitar.com Take our survey!
×
Author
Tabbed by: Joseph Larkin
Email: Tcampbell93@gmail.com
Tuning Standard

e-------------------------------------------0--1--0--------------------|
b--------1---0--1--0---1----1---1-----------1--1--1--3--1--------------|
g--------0---0--0--0---2----2---0-----------0--2--0--0--0--------------|
d-----2------0-----0---2----2---3---------2----------------------------|
a---3--------2---------0--0------------3----------------3------0-2-----|
e-------------------------------1--0-3---------------------0-3-----3---|

e----------------------------------------------------------------------|
b------------------------------------1---------------------------------|
g----------0-------------------------0---------------------------------|
d-----0h2-----0h2--0h2-2-0h1p0-------3---------------------------------|
a---3------2-------0-----------3---------------------------------------|
e--------------------------------0-1----0-3----------------------------|

e----------------------------------------------------------------------|
b----------------------------1--1-----1---1----------------------------|
g----------------------------0--0-----0h2-0----------------------------|
d-------/2-2--0-/2------0-------3---3-------3p2p0----------------------|
a---3-3-------2-----/2--0--3----------------------3--------------------|
e-------------------------------1--------------------------------------|

e----------------------------------------------------------------------|
b----------------------------------------------------------------------|
g-----------0--0-0---------0-----0-------------------------------------|
d-----1h2-3---------1h2-3----1h2---1h2---------------------------------|
a---/3------2--------------0-----------3-------------------------------|
e------------------------------------------1--0h3----------------------|

e----------------------------------------------------------------------|
b---------------------------------------------1---1--------------------|
g------------------------------2--------------0h2-0--------------------|
d-----0h2-2--0----0---0h2--0h2---0h1p0---0----3-----3-2-0--------------|
a---3--------2--2---2------0-----------3---3--------------3------------|
e---------------------------------------------1------------------------|

e----------------------------------------------------------------------|
b----------------------------------------------------------------------|
g-----------0--0-0--------0-----0--------------------------------------|
d-----1/2-3---------1h2-3---1h2---3-----2h3p2p0------------------------|
a---/3------2----------------------------------3-0-3-------------------|
e------------------------------------1------------3--------------------|

e----------------------------------------------------------------------|
b----------------------------------------------------------------------|
g----------------------------------------------------------------------|
d-----0h2--2-2--0-0---0h2-0h2--21p0------------------------------------|
a---3-----------2----0--------------3----------------------------------|
e------------------------------------1---0h3---------------------------|

e----------------------------------------------------------------------|
b----------------------------------------------------------------------|
g-----------0--0-0--------0-----0--------------------------------------|
d-----1/2-3---------1h2-3---1h2---1h2----------------------------------|
a---/3--------------------------------3--------------------------------|
e---------------------------------------1--0h3-------------------------|

e----------------------------------------------------------------------|
b--------------------------------1-------------------------------------|
g------------------0-----0-------0-------------------------------------|
d-----0h2-2-2-2--3-2--0h2p0-----------0-0h2p0-----0--------------------|
a---3-----------------------3--0---0-3--------3---0--3-----------------|
e-----------------------------------------------1----------------------|

e-------------------------------------0--1--0--------------------------|
b--------1---0--1--0---1---1----------1--3--1--3--1--------------------|
g--------0---0--0------0---0----------0--2--0--0--0--------------------|
d-----2----------------2---3----------2--------------------------------|
a---3--------2---------0-----------3--3-----------3--------------------|
e--------------------------1--0h3--------------------------------------|

e----------------------------------------------------------------------|
b----------------------------------------------------------------------|
g----------------------------------------------------------------------|
d----------------------------------------------------------------------|
a--------0--2----------------------------------------------------------|
e---0h3--------3-------------------------------------------------------|

e---0----0---------3-3-------------------------------------------------|
b---1--3------0h1--1-1--1---1---1--------------------------------------|
g---0--0------0----0-0--0---0h2-0--------------------------------------|
d---2---------2----2-2--3--3------2p0----------------------------------|
a---3--2----0------0-0----------------3--------------------------------|
e-----------------------1----------------------------------------------|

e--0--1--0-------------------------------------------------------------|
b--1--3--1--3--1-------------------------------------------------------|
g--0--2--0--0--0-------------------------------------------------------|
d--2-------------------------------------------------------------------|
a--3-----------3------0--2---------------------------------------------|
e-----------------0h3-------3------------------------------------------|

here comes the rasta part... it requires a little bit of a finger stretch...
this seems to be the only way to get the sound that John makes... try it...

e----------------------------------------------------------------------|
b----------------------------------------------------------------------|
g----------------------------------------------------------------------|
d----------------------------------0-----------------------------------|
a----3---3---3---/7-/7---3--3--------3---------------------------------|
e---8---8---7--7--------5--5---0-1-----0--3----------------------------|

e----------------------------------------------------------------------|
b----------------------------------------------------------------------|
g----------------------------------------------------------------------|
d-----------5----0h2p0---------------0---------------------------------|
a----3---3------------3----3--3--------3-------------------------------|
e---8---8---7--7--------0/5--5---0-1-----0--3--------------------------|

e----------------------------------------------------------------------|
b----------------------------------------------------------------------|
g----------------------------------------------------------------------|
d----------------------------------------------------------------------|
a---3-3---3------------------------------------------------------------|
e----------3-3---3-1-1-------------------------------------------------|

e----------------------------------------------------------------------|
b----------------------------------------------------------------------|
g----------------------------------------------------------------------|
d----------------------------------------------------------------------|
a---3-3---3------------------------------------------------------------|
e----------3-3---3-1-1--0h1-0h1----------------------------------------|

e--8--8-----8-7--------------------------------------------------------|
b--8--8-----8-8----1-1-1---1---1---1-----------------------------------|
g--9--9-----7-7----2-2-0h2-0---0---0-----------------------------------|
d------------------3-3-------3-0h2-0-----------------------------------|
a----------------------------------------------------------------------|
e-/8-------/7------1---------------------------------------------------|


e--8--8-----7-7--------------------------------------------------------|
b--8--8-----8-8----1-1-1---1---1---1-----------------------------------|
g--9--9-----7-7----2-2-0h2-0---0---0-----------------------------------|
d------------------3-3-------3-0h2-0-----------------------------------|
a----------------------------------------------------------------------|
e-/8-------/7------1---------------------------------------------------|

e--------------------------1-------------------------------------------|
b--------1---0--1--0---1---1----1---1----------------------------------|
g--------0---0--0------0---0----0h2-0----------------------------------|
d-----2----------------2---3---3-------3p2p0---------------------------|
a---3--------2---------0---------------------3-------------------------|
e--------------------------1-------------------------------------------|

e--0--1--0-------------------------------------------------------------|
b--1--1--1--3----------------------------------------------------------|
g--0--2--0--0----------------------------------------------------------|
d--2-------------------------------------------------------------------|
a--3-------------------------------------------------------------------|
e----------------------------------------------------------------------|
Suggest correction
What's this?
You can suggest a correction to this tab. Community and Mods will review your correction and vote to approve or reject it.
comments
print report bad tab
1 comment total.
0 reply
duke_uke_em 11 wrote on November 11 2012, 07:13 am

This tab sounds brilliant, thank you so much for tabbing I really love Johns version of this song

guest
You may want to rate the tab now too:
select rating
Please do not post tabs as comments. Select "correction" instead!