Oops, an error
Loading. Please wait.

Not Myself Tab

version 3
version 3

Whole song

Interactive

1,816 views 3 this week
no commentswrite comment
1 2 3 4 5
please rate
add to favorites
launch autoscroll
font size
0
reset
how to read this tab
guitar tuner
Tab Pro tools
  • play this tab
  • loop segment
  • change instrument
  • show fretboard
  • metronome
Autoscroll
slow
fast
+/-
esc
set tempo
stop
Contributor
-----------------------------------------------------------------
Not Myself - John Mayer
-----------------------------------------------------------------
Tabbed by: Swish        
Email: himmelsuchen@aol.com

Tuning: Standard tuning with capo at 1st fret
      ***all notes/chords are relative to the capo***

Intro: 

e|---3---2---0---0---| 
B|---3---3---8---8---| 
G|---0---0---0---0---| 
D|---0---0---7---x---| 
A|---x---x---8---7---| 
E|---3---2-------8---| 
     *   *             *play notes with thumb

Verse: 

e|---3---2---0---0-- ---3---2---0----------------0---| 
B|---3---3---8---8-- ---3---3---8----------------8---| 
G|---0---0---0---0-- ---0---0---0----------------0---| 
D|---0---0---7---x-- ---0---0---7---------7--8---7---| 
A|---x---x---8---7-- ---x---x---8------8---------8---| 
E|---3---2-------8-- ---3---2-------6------------6---| 
     *   *              *   *                    *

Chorus: 

e|---3---3---0---3---| 
B|---3---3---3---3---| 
G|---0---0---0---0---| 
D|---0---0---4---0---| 
A|---x---3---5---3---| 
E|---3---------------| 
     *                                  
Riff played behind the chords during choruse
e|---3-----2-----3-----2------       ---2-----0-------2-------0--------|
B|------3-----3-----3-----3---       ------1-----1--------1------1/3---|   
G|----------------------------(X3)   ----------------------------------|
D|----------------------------       ----------------------------------|
A|----------------------------       ----------------------------------|
E|----------------------------       ----------------------------------|

Verse.
Chorus.   

Bridge:

e|--------------------------------------------------------| 
B|---------------15-------------10h12--10-------------8---| 
G|-----------12-------------11---------------------9------|
D|-------14-------------12----------------------x---------|
A|--------------------------------------------------------| 
E|---12-------------10----------------------8-------------| 
     *              *                       *

"I always do...for you."
e|------------------0--0--0------------| 
B|---8---5--10------3--3--3--------0---|
G|---7---4---9------0--0--0---0h2------| 
D|---7---4---9------0--0--0------------|
A|---x---x---x------3--3--3------------|
E|---7---4---9-------------------------|
     *   *   *

Solo:

e|--------------------------------------------------------------------------------------|
B|---------3----------------------------------------------------------------------------|
G|---2/4-----------0-------------------0--2/4\2p0---5--5--3/4--4p0------0h2-------------|
D|-----------------------4----------2--------------------------------2-------0h2p0------|
A|----------------------------------------------------------------------------------3---|
E|--------------------------------------------------------------------------------------|

e|-----------------------------3------3----------2-------------3-\-1--------1-------0---|
B|----------------------------------------------------3---------------------------------|
G|--------------------0--2/4----------4-------2-------0--------4-\-2--------0h2-----0---|
D|---0h2p0-------0h2----------------------------------4---------------------------------|
A|----------0h2-------------------------------------------------------------------------|
E|--------------------------------------------------------------------------------------|

e|-----------------------|
B|-----------------------|
G|-------------------0---|
D|---------------3-------|
A|-------3---6-----------|
E|---4-------------------|

Verse.
Outro Chorus.

| / slide up
| \ slide down
| h hammer-on
| p pull-off
| ~ vibrato
| + harmonic
| x Mute note
comments
We did not receive enough feedback on this tab! Please rate:
print report bad tab
1 2 3 4 5
I want to post or [tab]
guest
You may want to rate the tab now too:
select rating
Please do not post tabs as comments. Select "correction" instead!