Oops, an error
Loading. Please wait.

Not Myself Chords

version 4
version 4

Whole song

Interactive

6,170 views 12 this week
1 commentread comment
1 2 3 4 5
excellent!
x 4
add to favorites
launch autoscroll
font size
0
reset
transpose
0
reset
simplify chords
display chords
guitar tuner
Autoscroll
slow
fast
+/-
esc
set tempo
stop
Help us to improve Ultimate-Guitar.com Take our survey!
×
Author
Capo
harry1994 2,954
1st fret
NOT MYSELF - John Mayer


Capo 1 (chords/tab relative to capo)

   Gsus4  Gmaj7  Fadd9  Cadd9   Gm9   Gmaj9  Csus2  Gadd9  Eadd9  Aadd9
e|---3------2-----(8)----(8)----(8)-----5------0------x------x------x----|
B|---3------3------8------8------8------3------3------8------5------10---|
G|---0------0------0------0------0------0------0------7------4------9----|
D|---0------0------7------0------7------4------2------7------4------9----|
A|--(3)----(2)-----8------7------8------5------3------x------x------x----|
E|---3------2------x------8------6------x------x------7------4------9----|


These chords are taken from John's performance at Tower Records in Atlanta, GA, 
back in 2001.  (this is the video- http://www.youtube.com/watch?v=px--mjSlrh8)

The notes in brackets in the chords can be played or muted, it depends what sound you like.


Gsus4  Gmaj7  Fadd9  Cadd9  

Gsus4     Gmaj7
Suppose I said
Fadd9      Cadd9
I am on my best behaviour
Gsus4     Gmaj7
There are times
Fadd9             Gm9
I lose my worried mind 


Gsus4                          Gmaj9   Csus2
Would you want me when I'm not myself?
Gsus4                          Gmaj9   Csus2
Wait it out while I am someone else? 


Gsus4     Gmaj7
Suppose I said
Fadd9             Cadd9
Colors change for no good reason
Gsus4      Gmaj7
Words will go
Fadd9          Gm9
From poetry to prose 


Gsus4                          Gmaj9   Csus2
Would you want me when I'm not myself?
Gsus4                          Gmaj9   Csus2
Wait it out while I am someone else?


And I... 
e|--------------------------------------------x------x---x---x---x-----|
B|--------------15---------------10h12--10----8---8--8---8---8---8-----|
G|----------12---------------12---------------9------9---9---9---9-----|
D|------14---------------10-------------------0------0---0---0---0-----|
A|--------------------------------------------x------x---x---x---x-----|
E|--12---------------10-----------------------8------8---8---8---8-----|

In  time... 
e|--------------------------------------------x------x---x---x---x-----|
B|--------------15---------------10h12--10----8---8--8---8---8---8-----|
G|----------12---------------12---------------9------9---9---9---9-----|
D|------14---------------10-------------------0------0---0---0---0-----|
A|--------------------------------------------x------x---x---x---x-----|
E|--12---------------10-----------------------8------8---8---8---8-----|

Will come around...
e|--------------------------------------------x------x---x---x---x-----|
B|--------------15---------------10h12--10----8---8--8---8---8---8-----|
G|----------12---------------12---------------9------9---9---9---9-----|
D|------14---------------10-------------------0------0---0---0---0-----|
A|--------------------------------------------x------x---x---x---x-----|
E|--12---------------10-----------------------8------8---8---8---8-----|


Gadd9 Eadd9  Aadd9  
I     always do...    
    Csus2
For you 


Gsus4  Gmaj7  Fadd9  Cadd9  (x2)


e|----------------|
B|----------------|
G|----------------|
D|-----------3----|
A|-----3--6-------|
E|--4-------------|


Gsus4  Gmaj7  Fadd9  Cadd9  


Gsus4     Gmaj7
Suppose I said
Fadd9            Gm9
You're my saving grace?


Gsus4
My grace
Gmaj9
Myself (not myself)
Csus2            Gsus4
When I'm someone else
                 Gmaj9
When I'm someone else
                 Csus2
When I'm someone else
             Gsus4
When I'm not myself
Gmaj9   Csus2
Myself (myself)


Gsus4  Gmaj9  Csus2


Gsus4
I want to live in a wooden house
Gmaj9                         Csus2
Making my own friends will be easy


Gsus4
I want to live in a wooden house
Gmaj9                         Csus2
Making my own friends will be easy


Gsus4
Suggest correction
What's this?
You can suggest a correction to this tab. Community and Mods will review your correction and vote to approve or reject it.
comments
print report bad tab
1 comment total.
+1 reply
takaoandrew 18 wrote on June 20 2014, 02:39 pm

And I in time..."
e--------10-------5h7--5-----3-----|
b------8-------7----------------5--|
g----9-----------------------------| x 3
d----------------------------------|
a--7--------5-------------3--------|
e----------------------------------|

Easier to play this way on acoustic. Also the ending is slightly different in this one, sounds better to me. Good tab though.

guest
You may want to rate the tab now too:
select rating
Please do not post tabs as comments. Select "correction" instead!