Oops, an error
Loading. Please wait.

Only Heart Tab

version 1
version 1

Whole song

Interactive

40,281 views 27 this week
7 commentsread comments
1 2 3 4 5
excellent!
x 16
add to favorites
launch autoscroll
font size
0
reset
how to read this tab
guitar tuner
Autoscroll
slow
fast
+/-
esc
set tempo
stop
Help us to improve Ultimate-Guitar.com Take our survey!
×
Author
Only Heart
Words and Music by John Mayer

Album: Heavier Things

Transcribed by: Gabe
Special thanks to Andrew and Sam

This is a really cool song so we decided to tab it since no one has!
All of this song was tabbed by ear and its totally 100% accurate! I made the solo easy to read.

Email: SupraSlick15_14@Juno.com
AIM: jmfan70

Key
h -Hammer On
p -Pull Off
/ -Slide Up
\ -Slide Down
x -Mute String
b -Bend
r -Release



Intro (Slight Distortion)

e--6-----6-----6----6------6-----6----5------5-------------
b----8-----8-----8----8------8-6---8----6----6-------------
g------7-----7/----8----8-----------------5--5-------------
d----------------------------------------------------------
a----------------------------------------------------------
E----------------------------------------------------------

e-6-----6------6-----6-----6------6----5~--------
b---8-----8------8-----8-----8-6----8--6~--------
g-----7-----7/-----8-----8-------------5~--------
d------------------------------------------------
a------------------------------------------------
E------------------------------------------------

Verse

e-----------------------------------------
b------------4-4--4--3---1-1-1------------
g--3-3--3----5-5--5--3---2-2-2------------
d--5-5--5----5-5--5--3---3-3-3------------
a--5-5--5----3-3--3--x---3-3-3------------
E--3-3--3------------3---1-1-1------------
Exact strumming not shown

Chorus
            
e-----------------------------------------------
b-3-3--3-3/--8--(7)--2h3-2h3-2h3-2h3------------
g-2-2--2-2/--7--(7)--2h4-2h4-2h4-2h4------------
d-4-4--4-4/--9--(7)--2---2---2---2--------------
a-2-2--2-2/--7--(9)--0---0---0---0--------------
E-----------------------------------------------
                 ^Quick change here

e-----------------
b-8-7---6-5-------
g-7-7---5-5-------
d-9-7---7-5-------
a-7-9---5-7-------
E-----------------
This part is played after Chorus is played twice

e-6-----6------6-----6-----6------6----5~--------
b---8-----8------8-----8-----8-6----8--6~--------
g-----7-----7/-----8-----8-------------5~--------
d------------------------------------------------
a------------------------------------------------
E------------------------------------------------
Play this after first chorus

Play Verse
Play Chorus


Solo (Slight Distortion)

e-----/3--/3--/3---6------/3--/3--/3---------
b-----/3--/3--/3----------/3--/3--/3---------
g--------------------------------------5-3---
d--------------------------------------------
a--------------------------------------------
e--------------------------------------------

e-----/3--/3--/3---6-----/3---6-6/8------/10--8-6---8----
b-----/3--/3--/3---------/3---------8------------------8-
g--------------------------------------------------------
d--------------------------------------------------------
a--------------------------------------------------------
e--------------------------------------------------------

e--6-----------------------------------------------------
b--------------------------------------------------------
g----7-----------5h7--5~-----3h5---------------------3h5-
d------8--5---8------------------3~----------------3-----
a--------------------------------------5p3-------5-------
e----------------------------------------------6---------

e-------------------------------------------------------
b-------------------------------------------3-----------
g---------5-3-------------5---3-----------3---5--3------
d----------------------5--------------4h5---------------
a--5h6-----------5--6-----------------------------------
e-------------------------------------------------------

e------------------------------3--5--6------------------------
b---------6-----------------6-----------13-13brbrbrbrbr-------
g------3----5p3-----3-----------------------------------------
d--2h3----------5-3---5---------------------------------------
a-------------------------------------------------------------
e-------------------------------------------------------------


Bridge

e------------------------------   
b-----10-----------------------    
g-----10--------------7-5------    
d---10----------4----5------4--    
a--8----------------6----------    
e------------------------------   
You cant really hear this part but its there after the solo

e----------------------------------
b-------1-1--5---------------------
g-3-3---2-2--3---------------------
d-5-5---3-3--5---------------------
a-5-5---3-3--3---------------------
E-3-3---1-1------------------------

Then play Chorus



e-----------------------------------------
b------------4-4--4--3---1-1-1------------
g--3-3--3----5-5--5--3---2-2-2------------
d--5-5--5----5-5--5--3---3-3-3------------
a--5-5--5----3-3--3--x---3-3-3------------
E--3-3--3------------3---1-1-1------------
This is the very very last chorus...he plays the verse chords

Ok this song rocks....this is the entire song it took a long time so enjoy it!
Suggest correction
comments
print report bad tab
7 comments total. Showing first comments.
0 reply
himurakenshin 15 wrote on May 26 2009, 06:40 am

great tab! but you didn't include the chords which are played during the intro riff, but all in all great tab! Nice job.

0 reply
PedroArdet 10 wrote on June 7 2009, 09:12 pm

The solo came out really good kid.

0 reply
justin_fraser 50 wrote on June 18 2009, 02:14 am

I have to agree, this is one awesome solo!! Good job!!

guest
You may want to rate the tab now too:
select rating
Wanna post a correction for this tab? Suggest correction