Oops, an error
Loading. Please wait.

Out Of My Mind tab

version 1
version 1

Whole song

  • My version is different because it is the only tab... Show more
139 views 9 this week
no commentswrite comment
1 2 3 4 5
x 3
add to favorites
×
Save as Personal and add changes to this tab that will be seen only by you. Learn more ›
×
You can save this tab as Personal to edit and correct it or add notes. All changes will be seen only by you. Learn more »
launch autoscroll
font size
0
reset
how to read this tab
guitar tuner
backing track
0:00
0:00
edit
Autoscroll
slow
fast
+/-
esc
set tempo
stop
About this tab version
My version is different because it is the only tab on UG that is complete, and the only tab from the Where the light is album. Was this info helpful? Yes No
This is the only Out of My Mind tab that is complete!!

This is "Out of my Mind" from "Where the light is"
The whole song is here, and it is very accurate. i 
would recommend watching the video on Youtube while 
learning this. This was by far the hardest song to 
learn for me since no one had a full tab. I can't
garantee that this is 100% correct, but I play along
with the track and it sounds good.

I hope you all learn from it. Please rate and put song
requests or sugestions in the comments.

I have 3 other songs from "Where the light is"
Who did you think i was (version 4)
i don't need no doctor (version 6)
Vultures(pending as of June 19)

(come when I call will be here very shortly)

Thanks!!!!

   This is just a long intro solo. It looks difficult but
   is actually very simple to play. Enjoy.
E|-----------------------|-----------------------------------------------------------------|
B|-----------------------|---13b---10-13--10h13p10-----10-------------10-------------------|
G|-----------10/11-------|--------------------------12----12p10----12----10----------------|
D|-----9-12---9/10-------|--------------------------------------12----------12p11----------|
A|--12-------------12v---|-----------------------------------------------------------------|
E|-----------------------|-----------------------------------------------------------------|

(Slow bend)
E|---------------------------------------------------------------------------------------------------|
B|--13b--10-13-10h13p10----10------------10----------------------------------------------10----------|
G|-----------------------12--12p10----12---10--------------------------------------------10h11-------|
D|----------------------------------12----------12p11---------------------------------12--------9\---|
A|----------------------------------------------------12---10h11p10----10----10----------------------|
E|------------------------------------------------------------------13----13----13-10----------------|

Let me first say how wonderful it feels to know that 
its 2007 and we just launched into a slow blues and 
7,000 people in LA went nuts. All is not lost.

E|----------------------------------------10------------------|
B|---13b---10-13--13br--10-13--13b--13b-------13p10-----------|
G|------------------------------------------------------------|
D|------------------------------------------------------------|
A|------------------------------------------------------------|
E|------------------------------------------------------------|

                         
E|---------------------|-----------|
B|---------------------|-----------|   Play this last measure
G|---12br---10h12p10---|---12-10---|   14 times. (Just the 
D|---------------------|-----------|   12-10 measure)
A|---------------------|-----------|
E|---------------------|-----------|

E|-----------------------------------------------------------------------------|
B|-----------------------------------------------------------------------------|
G|---12b---12p10----------10---------------------------------------------------|
D|----------------12-12v------12p10-------------10------------------12v 10-----|
A|-----------------------------------12p10------10h12-11-10--------------------|
E|-----------------------------------------------------------13-10-------------|

            rake
E|---10----------------------------------------------------------------------15-----------|
B|---10h12---10-------10------------------------------------------------------------------|
G|-------------10-----10h11---------------------------------------------------------------|
D|---------------12----------12p10------10h12v--10--------------------10v-----------------|
A|----------------------------------12---------------12p10\8/9---12----------------x\-----|
E|---------------------------------------------------------------------------------x\-----|

E|----------------------------------------------------------------------------------------------------|
B|-------15v--15v-----15-17b--15-17v-----17p15------15h17--15h17p15-----15----------------------------|
G|---16-----------------------------------------17-------------------17----17br--14--14---17b---------|
D|----------------------------------------------------------------------------------------------15\---|
A|----------------------------------------------------------------------------------------------------|
E|----------------------------------------------------------------------------------------------------|

E|---10--------------------------------------------------------------------------------|
B|---10-12-----------------------------------------------------------------------------|
G|------12--10b-----10---------------------------7-10/11v----------10------------------|
D|---------------12-----12p10----------------7h9----------------12-----12p10-----------|
A|----------------------------12p10-------------------------------------------12p10----|
E|-------------------------------------------------------------------------------------|

    rake
E|---10----------------------------------------------------|
B|-----10-----------------------------------------10\------|
G|-------12p10------------------------------------10\------|
D|------------12p10--------------12-7/9---12-12v-----------|
A|-----------------12p10\8/9-------------------------------|
E|---------------------------------------------------------|

  It appears in the video that John Mayer gets rid of his pick
  and plays with his fingers for a couple of measures.
E|------------------------------------------------------------------------------|
B|------------------------------------------------------------------------------|
G|------10---12-10---12-10---12-10---12-10---12-10----12b--12p10--------10------|
D|---12----------------------------------------------------------12-12-----9----|
A|------------------------------------------------------------------------------|
E|------------------------------------------------------------------------------|

E|-------------------------------------------------------------|
B|---13/15-15v------------10-10-13-15--13h15-13h15-13h15-13h15-|
G|-------------13\10-------------------------------------------|
D|-------------------12----------------------------------------|
A|-------------------------------------------------------------|
E|-------------------------------------------------------------|

E|-----------------------------------------------------------------------|
B|----------------------------13-----------------------------------------|
G|--13\12--13\12--13\12-10--------13\12--13\12--13\12--11/12-------11\---|
D|-------------------------12--------------------------------12-12-------|
A|-----------------------------------------------------------------------|
E|-----------------------------------------------------------------------|

E|------------------------------------------------13b-15b--13------------15b-14b--13---------13b-----|
B|---15v(12)--15v(12)--15v(12)---15v-15v-15v-15v---------------15v(12)----------------15-15----------|
G|---------------------------------------------------------------------------------------------------|
D|---------------------------------------------------------------------------------------------------|
A|---------------------------------------------------------------------------------------------------|
E|---------------------------------------------------------------------------------------------------|

E|-----------13b---13-15---13-15---13-15---13-15---13-15--13-15---13-15---13-15b---15p13---------------------|
B|----15-15--------------------------------------------------------------------------------15-15-------------|
G|------------------------------------------------------------------------------------------------14\12\11---|
D|-----------------------------------------------------------------------------------------------------------|
A|-----------------------------------------------------------------------------------------------------------|
E|-----------------------------------------------------------------------------------------------------------|

This John Mayer's famous blues lick. (Its pretty much just
descending down a scale very fast) The only note that is plucked
is the first note on the 13 fret of the b string.
E|----------------------------------------|
B|---13p10--------------------------------|
G|----------13\12p10----------------------|  Play this 3 times.
D|--------------------12p10---------------|
A|---------------------------12\10\8p0----|
E|----------------------------------------|

Then he transitions to this lick, which is 
just a shorter version of the one above.
E|-----------------------------------------------------------13----------------------------------------------|
B|--13p10------------13p10------------13p10------------13p10-------------------------------------------------|
G|--------13\12p10---------13\12p10---------13\12p10------------13\12p10-----10------------------------10----|
D|------------------------------------------------------------------------12----12p10----------------12--12\-|
A|------------------------------------------------------------------------------------12-10h11p10------------|
E|-------------------------------------------------------------------------------------------------13--------|

He starts using a pick again here. At this part you can
see him grab a pick from his mic stand. 
E|---12/14--12-------------12v-----------10---------10--------10-12--12p11p10------10------------------------|
B|-------------14p12--------------10-13b-----10-13b----10-13b----------------13p10----13p10------------------|
G|-------------------14p12------------------------------------------------------------------13-12p10--12b----|
D|-----------------------------------------------------------------------------------------------------------|
A|-----------------------------------------------------------------------------------------------------------|
E|-----------------------------------------------------------------------------------------------------------|

E|-------------------10------------------------------------------|
B|---10-10-10----13b----10br-------------------------------------|
G|---------------------------12-12br-10-9br----------------------|
D|------------------------------------------12-9br---------------|
A|-------------------------------------------------12-9br--------|
E|--------------------------------------------------------10\----|

E|---------------------------10-------10-----------------10------------------10----|
B|--------------------------------13b----13p10----10-13b----13p10----10-13b--------|
G|-------------------7-9/11--------------------------------------------------------|
D|------------7-7/9----------------------------------------------------------------|
A|-------8/9-----------------------------------------------------------------------|
E|--/10----------------------------------------------------------------------------|

         slow bend
E|-----------------------12br-10------------------10----------------------------------------------|
B|---10--13b----------------------13br--10-10v----10h12--10-----10--------------------------------|
G|-----------------------------------------------------------12-10h11-----------------------------|
D|---------------------------------------------------------------------12p10----------------------|
A|---------------------------------------------------------------------------12--10h12--10--8/9---|
E|------------------------------------------------------------------------------------------------|

  Well that's the intro. It's really fun to play
  once you get it down.


  This part when John goes between singing and playing. I put 
  the lyrics down so you know where you're at.
Verse
        I'm putting you baby
E|-----------------------------10-------------------------------|
B|---10------------------------10h12-------------12p10----------|
G|---9------------------------------------10/11---------10/11---|
D|---10-------------------------------12---9/10-----------------|
A|---x----------------------------------------------------------|
E|---10---------------------------------------------------------|

        I'm putting you right out.  Right out of my mind
E|-------------------------------------------------------------------------------------------|
B|----------------------------------------------------------13b---------------------10-------|
G|--10----------------------------------------------------------12b--11b-11b--------10h11----|
D|--9------------------------------------------------------------------------12-12v----------|
A|--10---------------------------------------------------------------------------------------|
E|-------------------------------------------------------------------------------------------|

                                          Play this measure twice
E|----------------------------------|-----------------------------------------------------|
B|----------------------------------|-----------------------------------------------------|
G|----------------------------------|----8/9----8/9----8/9-------9/10----9/10----9/10-----|
D|--10------------------------------|----9/10---9/10---9/10-----10/11---10/11---10/11-----|
A|--10h12-11-10-----10----10h12-10--|----8/9----8/9----8/9-------9/10----9/10----9/10-----|
E|---------------13----13-----------|-----------------------------------------------------|

                 I'm putting you baby        ha ha ha
E|---------10\---------------------------------------------------------------------|
B|---------10\-------------------------------------------10-13---------------------|
G|---10---------------------------------10---------------------12-10----------10---|
D|---9----------------------------------9----------------------------12-------9----|
A|---10---------------------------------10------------------------------12-11-10---|
E|---------------------------------------------------------------------------------|

       I'm putting you right out.   
E|----------------------------------|
B|----------------------------------|
G|---(10)---------------------------|
D|---(9)----------------------------|
A|---(10)---------------------------|
E|----------------------------------|

     Right out o**************************************************f my mind
E|-----------------------------------------------------------------------------------------|
B|---------------10------------------------------------------------------------------------|
G|---10----------9----10h12--10h12--10h12--10h12--10h12--10h12--10h12--10v-----------------|
D|---9-----------10---------------------------------------------------------12p10----------|
A|---10-----------------------------------------------------------------------------12-----|
E|-----------------------------------------------------------------------------------------|

Mini solo #1
E|---------------------------------------------------------------------|
B|---6b----------------------------------------------------------------|
G|------7--------------------------------------------------------------|
D|---------7--3h5p3---3-5-7-3---------3h4-----------------------3\-----|
A|----------------------------5---3-5-----5p3-----------5--3h5---------|
E|------------------------------5--------------5p4p3\1-----------------|

E|-----------------------------------------------------------11/12---11/12---11/12-----|
B|-------------------------------------------6b--------------x--x----x--x----x--x------|
G|-------------5-------------------------5-------7-----------11/12---11/12---11/12-----|
D|-----3--5/7-----7/5p3--5-------3--5/7-------------7p5\3------------------------------|
A|---5-------------------------5-------------------------------------------------------|
E|-------------------------------------------------------------------------------------|

         So tired of running after you girl.      Being, being, being, being, being
E|---12v----------------------------------------------------------------------------------|
B|---x------------------------------------------------------------------------------------|
G|---12v----------------------------------------------------------------------------------|
D|----------------------------------------------------------------------------------------|
A|----------------------------------------------------------------------------------------|
E|----------------------------------------------------------------------------------------|

                      Being one and one and one and one and one and one-half steps behind.
E|-----------------------------------------------------------------------------------------|
B|-----------------------------------------------------------------------------------10----|
G|---10----------10v-----------------------------------------------------------------9-----|
D|---9-------------------------------------------------------------------------------10----|
A|---10------10----------------------------------------------------------------------x-----|
E|-------10--------------------------------------------------------------------------10----|

Mini Solo #2
   All the time 
E|---------------10-----10-----------10--10-----------10-----10-----------10-----10-------------------|
B|---------------10h12--10h12p10----------8h9p8-------10h12---8h9p8-------10h12---8h9p8------10-------|
G|-------------------------------12--------------10-------------------10------------------10----10b---|
D|----------------------------------------------------------------------------------------------------|
A|----------------------------------------------------------------------------------------------------|
E|----------------------------------------------------------------------------------------------------|

E|---------------------------10-12--------------------------10--12br--10v----------------------|
B|--------------------10/12---------13b-10------10-10v--12----------------10-------------------|
G|------------------------------------------12-------------------------------12------10/11-----|
D|---12-------------------------------------------------------------------------12----9/10-----|
A|-------12p10\8/10----------------------------------------------------------------------------|
E|---------------------------------------------------------------------------------------------|

        Go tell your friends, your stupid friends.
E|----------------------------------------------------------------------------------|
B|--------------------------------------------------------------------------12\-----|
G|---11---------------------------------------------10------10---------10---12\-----|
D|---10---------------------------------------------10h12---10---------9------------|
A|---x----------------------------------------------------------12-11--10-----------|
E|---10-----------------------------------------------------------------------------|

Go tell your friends just what Johnny did, yeah!    And don't lie about it either. Tell the truth baby.
E|----------------------------------------------------------------------------------------|
B|----------------------------------------------------------------------------------------|
G|----------------------------------------------8/9---------------------------------------|
D|----------------------------------------------9/10--------------------------------------|
A|----------------------------------------------8/9---------------------------------------|
E|----------------------------------------------------------------------------------------|

E|-------10------------------------------------------------------------------------|
B|---13b----13p10-----13-10--------------------------------------------------------|
G|--------------------------13\12p10-----------------------------------------------|
D|-----------------------------------12p10------------------------------3h5--------|
A|-----------------------------------------12-11p10--------------------------------|
E|---------------------------------------------------13--10\8\5\4\3\1---------5\---|

                                                                    Go tell your friends.
E|--------10------10---7/14b---10----------------------------------------------------------|
B|-----------------------------10----------------------------------------------------------|
G|---/11-----/11------------------13\12-10-----------10--10--10\---------------------------|
D|-----------------------------------------12---------9---9---9\---------------------------|
A|--------------------------------------------12-11--10--10--10\---------------------------|
E|-----------------------------------------------------------------------------------------|

                                       - Go tell youe friends exactly, exactly what Johnny did, yeah.
E|--15br(p)13------------------------------------------------------------------------------|
B|-------------15------------------10------------------------------------------------------|
G|----------------14\12p10---------10------------------------------------------------------|
D|--------------------------12-------------------------------------------------------------|
A|-----------------------------10v----10\--------------------------------------------------|
E|-----------------------------------------------------------------------------------------|

     trill        trill         *pluck behind nut
E|----------------------------------------------------------------------------------------|
B|----------------------------------------------------------------------------------------|
G|----------------------------------------------------------------------------10h11\------|
D|---10h12--------10h12---12p10p0------------10---------------------------12--------------|
A|-----------12----------------------------------12p10------------------------------------|
E|------------------------------------10\---------------13b--10--13b--10------------------|
                                *

   Oh no!       (rake)         Oh no!        (rake)  Oh no no!
E|--------10---------------------------10--------------------------|
B|--------10h12---x--------------------10h12---x-------------------|
G|----------------x---10-----------------------x------10v--12\-----|
D|----------------x----------------------------x-------------------|
A|-----------------------------------------------------------------|
E|-----------------------------------------------------------------|

                 If they don't tell that you're stupid and crazy baby
E|---------------------------------------------------------------------------|
B|---------------------------------------------------------------------------|
G|---11/12v---12-------------------------------------------------------------|
D|---10/11v---11-------------------------------------------------------------|
A|---11/12v---12-------------------------------------------------------------|
E|---------------------------------------------------------------------------|

                                           Oh they're just as messed up as you is
E|---10-----------------------------------------------------------------------------|
B|---10h12--10-------------------------12-------------------------------------------|
G|-------------10---------------9/10---10-------------------------------------------|
D|----------------12------------8/9-------------------------------------------------|
A|-------------------12-11-10---9/10------------------------------------------------|
E|----------------------------------------------------------------------------------|

                             Can I play my guitar?   Can I play a loud one?      
E|---------------------------------------------------------------------------------------|
B|---------------------------------------------------------------------------------------|
G|-------10h11---------------------------------------------------------------------------| 
D|---12v-------12p10--------------------------------------------------------------11-----| 
A|---------------------------------------------------------------------------------------|-
E|---------------------------------------------------------------------------------------| 



  This is the end of the verse. Now comes the solo. This is the hardest solo
  of the song in my opinion. This will take a lot of practice to master,
  so don't feel discouraged if you aren't getting it right off the bat. 

  Solo
E|-----------------13b--14b-14b--13-----------13b--------15b-14b-13-----------------------|
B|---13b----15-15--------------------15v-15v------------------------15v-15v-15v-15v-15v---|
G|----------------------------------------------------------------------------------------|
D|----------------------------------------------------------------------------------------|
A|----------------------------------------------------------------------------------------|
E|----------------------------------------------------------------------------------------|

E|-------13-14b---13------------------------13br------------13-15b----------|
B|---15---------------15v--15v-------15-15------------15-15-----------------|
G|--------------------------------------------------------------------------|
D|--------------------------------------------------------------------------|
A|--------------------------------------------------------------------------|
E|--------------------------------------------------------------------------|

E|----------13-15-17----15b-15b-15b-15b-15b---14br(p)13---15br(p)13-----13--15br(p)13----13--15/17b----|
B|---15-15------------------15b-15b-15b-15b-------------------------15----------------15---------------|
G|-----------------------------------------------------------------------------------------------------|
D|-----------------------------------------------------------------------------------------------------|
A|-----------------------------------------------------------------------------------------------------|
E|-----------------------------------------------------------------------------------------------------|

                                                    *Last bend is higher than the others.
E|---15------------------15------------------15------------------15--------------------|
B|------18p15----18b--------18p15----18b--------18p15----18b--------18p15----18b-------|
G|------------17------------------17------------------17------------------17-----------|
D|-------------------------------------------------------------------------------------|
A|-------------------------------------------------------------------------------------|
E|-------------------------------------------------------------------------------------|
                                                                              *

E|------------------------------------------------------------------------------|
B|---15h17p15----15h17p15----15h17p15----15h17p15----15h17p15----15h17p15-------|
G|------------17----------17----------17----------17----------17----------17----|  Play this 
D|------------------------------------------------------------------------------|  measure twice.
A|------------------------------------------------------------------------------|
E|------------------------------------------------------------------------------|

E|-----------------------------------------------------------------------------17---------|
B|---15-18br(p)15------15-17br(p)15------15-18br(p)15------15-17br(p)15-----15----15------|
G|-----------------17----------------17----------------17----------------17----------17---|
D|----------------------------------------------------------------------------------------|
A|----------------------------------------------------------------------------------------|
E|----------------------------------------------------------------------------------------|

               *Bend/return this note 7 times
E|-----------------------------------------------------------------------------------------------|
B|------15-17--17br(x7)---15h17p15--13h15p15--10h13p10-------------------------------------------|
G|---17-------------------------------------------------12br(p)10--------------------------------|
D|-----------------------------------------------------------------12p10-------------------------|
A|------------------------------------------------------------------------12p11p10h11p10---------|
E|----------------------------------------------------------------------------------------13p10--|
                *
 
This part is just repeating very fast licks.
E|------------------------------------------------------------------------------------------------------|
B|------------------------------------------------------------------------------------------------------|
G|---10h12p10-------------------------------10-------------------------10h12p10-------------------------|
D|------------12p10----------------------------12p10h12p10----------------------12p10-------------------|
A|------------------12p11p10p11p10-------------------------12p10h13-------------------12p11p10----------|
E|---------------------------------13p10-------------------------------------------------------13p10----|

E|----------------------------------------------------------------------------------------|
B|----------------------------------------------------------------------------------------|
G|---10--10h12p10----12p10-------12p10-------12p10h12/14\12p10----------------------------|
D|----------------12-------12p10-------12p10-------------------12p10----------------------|
A|-------------------------------------------------------------------12p10h11p10----------|
E|-------------------------------------------------------------------------------13p10----|

                                                    slow bend
E|-----------------------------------------------10--------10---------------10------------|
B|-----------13-------------------------------10----13b-------13p10------10---------------|
G|---10h12br(12)(p)10-----12br(p)10-----10h11------------------------12b--------12\-------|
D|-----------------------------------12---------------------------------------------------|
A|----------------------------------------------------------------------------------------|
E|----------------------------------------------------------------------------------------|

E|-------------------------------------------------------------------------------|
B|-----------------------------------------------------------------8-------------|
G|---5/7(x5)----7/10\7p5/7\5--------5-------------------5-7/9\7/9----9\7p5-------|
D|------------------------------5/7---7\5p3-----3--5/7---------------------------|
A|-------------------------------------------5-----------------------------------|
E|-------------------------------------------------------------------------------|

E|---------------------------------------------------10--------------10---------|
B|------------8-------------------8----------------------13b\--------10---------|
G|-----5-7/9----9\7p5-----5--7/9----9\7p5-------/11--------------/11------------|
D|---7-----------------7------------------7-------------------------------------|
A|------------------------------------------------------------------------------|
E|------------------------------------------------------------------------------|

E|-----------------------------------------------------------------------------------------|
B|---12/13--------13-13-13-13---13/14---15--(15)\-----17br17br---17b--17b--17br--15v-15v---|
G|---13/14(x7)----14-14-14-14---14/15---16--(16)\------------------------------------------|
D|-----------------------------------------------------------------------------------------|
A|-----------------------------------------------------------------------------------------|
E|-----------------------------------------------------------------------------------------|

E|---17b--17---------------------------17b--17--17b-15------------------------------------|
B|-----------15v-15v-------------15-15-----------------18p15----15-----------15v-15v------|
G|-------------------16-------16-----------------------------17----16-----16--------------|
D|----------------------------------------------------------------------------------------|
A|----------------------------------------------------------------------------------------|
E|----------------------------------------------------------------------------------------|

E|---17b--17b--17br(p)15------15-----------15---------------------17--------------|
B|---17b--17b--17br(p)15---18----18----18b----18----17br(p)15--------15-----------|
G|----------------------------------17-----------16-----------16--------16-16\----|
D|--------------------------------------------------------------------------------|
A|--------------------------------------------------------------------------------|
E|--------------------------------------------------------------------------------|

E|---------------------------10--------10--------------10---------------------|
B|------15-17-17b\--------10---10--13b-----13p10----10----13p10---------------|
G|---16---------------/11------------------------12-------------13\12p10------|
D|-----------------------------------------------------------------------12---|
A|----------------------------------------------------------------------------|
E|----------------------------------------------------------------------------|

E|----------------------------------------------------------------------------------------------------|
B|---13p10--------------------------------------------------------------------------------------------|
G|---------13\12p10---10------------------------10h12p10---------------10h12p10-----------------------|
D|------------------12---12p10--------------------------12p10------------------12p10------------------|
A|-----------------------------12p10h11p10-------------------12p11p10---------------12p11p10----------|
E|-----------------------------------------13-----------------------------------------------13p10-----|

                              *tremolo pick
E|------------------------------------------------------------------------|
B|------------------------------------------------------------------------|
G|---10-----------------------10----12----14-----14-14-14-14-------10\----|
D|------12p10-----------12----12----14----15-----15-15-15-15-x-x---x------|
A|------------12p10------------------------------------------x-x---10\----|
E|------------------13----------------------------------------------------|
                              *     *     *

This part of the song is when it gets really quiet but then builds back up.
E|----------------------------------------------------------------------------------|
B|----------------------------------10v--8b\----10-12-10----------------------------|
G|-------10---9----7---5---7---3\------------------------12-9-4-2-0--7v-5v----------|
D|-------x----x----x---x---x---x-------------------------------------------7\-------|
A|---12--12---10---8---7---8---5\---------------------------------------------------|
E|----------------------------------------------------------------------------------|

E|-------------------------------------------------------------------10-----13-10-13-10-13----|
B|--13b--13-10-10--------------------------------------10-13b-----10----10--------------------|
G|----------------13\12p10-----------9-12---10----12------------------------------------------|
D|-------------------------12-10-12------------12---------------------------------------------|
A|--------------------------------------------------------------------------------------------|
E|--------------------------------------------------------------------------------------------|

E|---15/17-17---13-13--15-15--------13----------------10---------------------------10-----|
B|----------------------------15-15----13---15p13/10-----10-13------------------10--------|
G|--------------------------------------------------------------13\12p10----12b-----------|
D|-----------------------------------------------------------------------12---------------|
A|----------------------------------------------------------------------------------------|
E|----------------------------------------------------------------------------------------|

E|-----------------------------------------------------|
B|-----------------------------------------------------|
G|---10-12----10---------------------------------------|
D|---------12----12p10---------------------------------|
A|---------------------12p11p10h11p10------10h12-------|
E|-------------------------------------13--------------|

      *Tremelo pick
E|---------------------------------------------|-------------|
B|---------------------------------------------|-------------| Play last measure
G|---------------------------------------------|---10--------| 12 times.
D|-----------------------/12-------/12---------|---10--------|
A|-----12---12---12-----------/12--------/12---|------/12----|
E|---------------------------------------------|-------------|
       *    *    *        *    *    *     *        *   *

                       End of tremolo picking
E|---------------------------------------------|
B|----------------13---10---10-10-10-10--------|
G|----------------14---12---12-12-12-10--------|
D|---10---12\---------------------------12-----|
A|---12---14\----------------------------------|
E|---------------------------------------------|
     *    *       *    *

                                                                         trill   trill
E|----------------------------------------------------------------------------------------|
B|----------------------------------------------------------------------------------------|
G|----------------------------------/11b---12p10h12br(p)10h12p10h12------10h12----9h10----|
D|---12v-12v-12v-12v-12v-12v-12v----------------------------------------------------------|
A|----------------------------------------------------------------------------------------|
E|----------------------------------------------------------------------------------------|

E|-----------------------------------------------------------------------------------------|
B|---------------------------------------------------13b---------13b--------13b------------|
G|---7h9br(p)7h9p7\5h7p5--------------------------------12-10-------12-10------12-10-------|
D|------------------------7\5p3------------------------------------------------------------|
A|-------------------------------5p3p0--3h5p3----------------------------------------------|
E|---------------------------------------------5\------------------------------------------|

E|---12--------10-----10--------12-----------10------10------------------|
B|----------10----13b----12---------------10----13b------13\12p10--10----|
G|------12------------------10------12b----------------------------------|
D|-----------------------------------------------------------------------|
A|-----------------------------------------------------------------------|
E|-----------------------------------------------------------------------|

                                                                                      hold bend for a while
E|---12b--13b--15b--17br---15--17b--17---------------17p15------------17b---------17b--------12----------|
B|---------------------------------------------------------17-------------------------12b--------12b-----|
G|---------------------------------------14\12p10------------12p10-------12p10--------12b--12----12b-----|
D|------------------------------------------------12---------------12----------12------------------------|
A|-------------------------------------------------------------------------------------------------------|
E|-------------------------------------------------------------------------------------------------------|

E|-----------------------------------------------------------------------------------------------------------|
B|---10-12--12b---12-10-12--10h12p10---------------------------------------------------10--------------------|
G|------------------------------------12-12-12b---12p10----12-10-----------------------10h12---/10-----------|
D|------------------------------------------------------12-------12p10-------------------------/12------12---|
A|---------------------------------------------------------------------12p11p10------------------------------|
E|------------------------------------------------------------------------------13p10--------------/10-------|

          Ha ha ha.  oh now.          Oh!        
E|----------------------------------------13\-------------|
B|----------------------------------------13\-------------|
G|---10---------------------------------------------------|
D|---9----------------------------------------------------|
A|---10---------------------------------------------------|
E|--------------------------------------------------------|

  I'm putting you baby, I'm putting you baby, I'm putting you baby, all right
E|----------------------------------------------------------------------------------------|
B|----------------------------------------------------------------------------------------|
G|-----------------------------------------------12b-----------------12--12---------------|
D|----------------------------------------------------------------------------------------|
A|----------------------------------------------------------------------------------------|
E|----------------------------------------------------------------------------------------|

E|------------------------------------------------------10-----------------------------------|
B|---------------------------------------------------10-10h12--------------------------------|
G|----10-12-11--12p11h12br(p)10----------------10h12--------------11-------------------------|
D|------------------------------12p10-------------------------12--10-------------------------|
A|------------------------------------12p10---------------------------12p10\8\7\5\3\2\1\0----|
E|-------------------------------------------------------------------------------------------|

                                              I'm.   I'm putting you baby. Right out 
E|------------------------------------------------------------------------------------|
B|-------------------12h14---10------10h12v-------------------------------------------|
G|---------11-------------------12----------------------------------------------------|
D|------------------------------------------------------------------------------------|
A|----10------------------------------------------------------------------------------|
E|----10-------7\5--------------------------------------------------------------------|

  Right out.  Right out of my mind.
E|----------------------------------12br(p)10--------------12br(p)10------------|
B|--------------------------------------------13p10------------------13p10------|
G|--------------------------------------------------12p10------------------12---|
D|------------------------------------------------------------------------------|
A|------------------------------------------------------------------------------|
E|------------------------------------------------------------------------------|

 Right out                   Right out                   Right out
E|---------12br(p)10-------------------12br(p)10--------------------12br(p)10-------------|
B|-------------------13p10-----------------------13p10------------------------13p10-------|
G|----------------------------------------------------------------------------------------|
D|----------------------------------------------------------------------------------------|
A|----------------------------------------------------------------------------------------|
E|----------------------------------------------------------------------------------------|

 Right out                    Right out 
E|---------12br(p)10--------------------12br(p)10-----------------12v----------------|
B|-------------------13p10------------------------13p10------------------12\---------|
G|-------------------------------------------------------7/11/12---------x-----------|
D|-----------------------------------------------------------------------12\---------|
A|-----------------------------------------------------------------------------------|
E|-----------------------------------------------------------------------------------|

  So tired of running after you girl.
E|----------------------------------------------------------------|
B|----------10h12----------------10-------------------------------|
G|----------10-------10----------10---------------------10--------|
D|------------------------12p10------12p10--------------9---------|
A|------------------------------------------12--10\-----10--------|
E|-----x\---------------------------------------------------------|

  and being one and one half steps     and being one and one half steps
E|-------------------------------------------------------------------------------|
B|-------------------------------------------------------------------------------|
G|--------------------------------10-----------------------------------10--------|
D|--------------------------------9------------------------------------9---------|
A|--------------------------------10-----------------------------------10--------|
E|-------------------------------------------------------------------------------|

and being one and one and one and one and one and one and one and one half steps behind
E|----------------------------------------------------------------------------|
B|---------------12b------12--12--10--10--------------------------------------|
G|----------------------------------------12--12--10--10b---------------------|
D|--------------------------------------------------------13--13b-------------|
A|----------------------------------------------------------------12----------|
E|----------------------------------------------------------------------------|

E|------------10-------10-------------------------------------------------------10--12--12b-----|
B|---10-13b-------13b------13b------------------------------------------10--13b-----------------|
G|------------------------------12br--10b--12--12br---10b--------10-11--------------------------|
D|---------------------------------------------------------12v\---------------------------------|
A|----------------------------------------------------------------------------------------------|
E|----------------------------------------------------------------------------------------------|

Outro
E|---12b--12p10h12p10--------10--------------------------------------------------------------|
B|--------------------13-10-----13p10-------13-10--------------------------------------------|
G|------------------------------------13p10-------12p10----10--------------------------------|
D|------------------------------------------------------12----12p10--------------------------|
A|------------------------------------------------------------------12-10h11p10--------------|
E|-------------------------------------------------------------------------------13----------|

                                         *Tremolo pick
E|----------------------------------------------------------------------|
B|-------------------------------------------12---13---15--15-----------|
G|--------------------------------------10---13---14---14---------------|
D|--------------------------------------x-----------------------12\-----|
A|---10h12p10\9------------8--10/12-----12----------------------12\-----|
E|----------------10-8-10-----------------------------------------------|
                                        *    *     *    *


Well thats the song. This song took me about 6 months to 
learn, but I hope you can learn it faster with an accurate tab.
I hope everyone learned from this. please rate
and put other song requests or suggestions in the comments. 

Tab Legend
br- bend return
v- vibrato
bv- bend vibrato
b-bend






            
            
Suggest correction
Creating personal tab
Creating personal tab
You can edit any tab online and save it as your Personal.

You can edit, replace or remove any tab part or add personal notes – all changes will be seen only by you.

Personal tabs can be accessed anytime from any device, even offline.
Learn more »
Give kudos to tab author, rate the tab!
1 2 3 4 5
comments
print report bad tab
guest
You may want to rate the tab now too:
select rating
Wanna post a correction for this tab? Suggest correction