Oops, an error
Loading. Please wait.

Paper Doll Tab

version 1
version 1

Whole song

Interactive

41,696 views 33 this week
4 commentsread comments
1 2 3 4 5
x 17
add to favorites
launch autoscroll
font size
0
reset
how to read this tab
guitar tuner
Autoscroll
slow
fast
+/-
esc
set tempo
stop
Help us to improve Ultimate-Guitar.com Take our survey!
×
Author
Difficulty
novice
-------------------------------------------------------------------------------
                             John Mayer - Paper Doll
-------------------------------------------------------------------------------
Tabbed by:xmesh14x
E-mail:
Tuning:Standard

Listen to the song and you`ll get the feel for it :p

*NOTE* - John plays variations throughout the song

[Intro]
e|----------------------------------|
B|-----12p10------------------------|
G|-----------12-----0--------0------|
D|---------------10---10--9---------|
A|--10-----------10-------10--------|
E|----------------------------------|


Another way to play it:
e|-------7--------------------------|
B|---------10-8------8-----8--------|
G|-------------------0-----0--------|
D|-----------------10-10-9----------|
A|--10------------------------------|
E|----------------------------------|

Or here`s a third way (if you can`t add the 17, don`t worry about it)

e|---------------------------------|
B|-----12--------------------------|
G|--------14-12----12-----12-------|
D|-----------------17-----17-------|
A|--------------15---15-14---------|
E|--15-----------------------------|



************************************

| p  Pull-off

************************************
Suggest correction
comments
print report bad tab
4 comments total. Showing first comments.
0 reply
Rich Cejer 10 Jun 24, 2013 03:38 PM

I think instead of 7th fret on the e, it should start with 12th fret on B because then you can hammer on and it's easier to play. Sounds more like John too, otherwise good job and I look forward to the rest of the tab

0 reply
tvardalos 10 Jun 26, 2013 11:25 AM

maybe just do it this way instead,... :)

http://instagram.com/p/a11_UZoMw-/

0 reply
ciwi 156 Jul 31, 2014 06:11 PM

Lack of accuracy.

guest
You may want to rate the tab now too:
select rating
Wanna post a correction for this tab? Suggest correction