Oops, an error
Loading. Please wait.

Paper Doll tab

version 3
version 3

Whole song

Interactive

23,894 views 9 this week
10 commentsread comments
1 2 3 4 5
x 18
add to favorites
×
Save as Personal and add changes to this tab that will be seen only by you. Learn more ›
×
You can save this tab as Personal to edit and correct it or add notes. All changes will be seen only by you. Learn more »
launch autoscroll
font size
0
reset
how to read this tab
guitar tuner
edit
Autoscroll
slow
fast
+/-
esc
set tempo
stop
Author
Difficulty
[Main riff]          
e|--------------------------|
B|--------12p10-------------|
G|-------------12*----------|
D|-----------------10~--9~--|
A|---10~-----------10~-10~--|
E|--------------------------|
                            
e|---------------------------------------------------------------|
B|-------12p10--------------------7------------12p10-------------|
G|------------12*------------------7----------------12*----------|
D|-----------------10~--9~-----------7-------------------10~--9~-| 
A|---10~-----------10~-10~-----------9---10~------------10~-10~--| 
E|-------------------------(0)-5*--------------------------------|



************************************

| p    Pull-off
| *    Natural harmonic
| ~    Vibrato
| (n)  Ghost note

************************************

            
            
Suggest correction
Creating personal tab
Creating personal tab
You can edit any tab online and save it as your Personal.

You can edit, replace or remove any tab part or add personal notes – all changes will be seen only by you.

Personal tabs can be accessed anytime from any device, even offline.
Learn more »
comments
print report bad tab
10 comments total. Showing first comments.
0 reply
Deadnpoetic 51 Jul 14, 2013 01:53 PM

Update on the way!

0 reply
zartimus 10 Aug 14, 2013 04:33 PM

There's no low E in the intro, you're missing one of the double stops. Good luck on the update..

0 reply
karlosdajackal 31 Aug 22, 2013 12:03 PM

Nice work, looking forward to the update.

guest
You may want to rate the tab now too:
select rating
Wanna post a correction for this tab? Suggest correction