Oops, an error
Loading. Please wait.

Passionfruit tab

3,610 views 57 this week
1 commentread comment
1 2 3 4 5
x 4
add to favorites
×
Save as Personal and add changes to this tab that will be seen only by you. Learn more ›
×
You can save this tab as Personal to edit and correct it or add notes. All changes will be seen only by you. Learn more »
launch autoscroll
font size
0
reset
how to read this tab
guitar tuner
edit
Autoscroll
slow
fast
+/-
esc
set tempo
stop
John Mayer - Passionfruit (Drake cover)

tabbed by Axel Haumann (asehauDLM)

based on his Ziggo Dome (Amsterdam) Performance on May 3rd, 2017.
https://www.youtube.com/watch?v=EiOGR8WkHHk

The chords are the same for the whole song, only the picking pattern changes a few times.
--------------------------------------------------------------------------------------------
Basic chords [Played throughout the whole song]
e|--------------------------|
B|--2----2----0---------2---|
G|--4----4----3----6----4---|
D|--2----2----1----4----2---|
A|--2----4---------x----2---|
E|--0--------------4----0---|


[Verse 1] and [Chorus 1]: Basic picking pattern 1 (without slap)
e|------------------------------------------------------|
B|--------2--------------------------2------------------|
G|--4-----------4--------------4-----------4------------|
D|---------------------[4x]-----------------------[4x]--|
A|-----------------------------4--4-----4-----4---------|
E|--0--0-----0-----0------------------------------------|

e|---------------------------------------------------------------------------------|
B|--------0-----------------------------------------------------2------------------|
G|--3-----------3------[4x]----------6--------------------4-----------4------------|
D|--1--1-----1-----1-----------4-----------4------[2x]-----------------------[2x]--|
A|---------------------------------------------------------------------------------|
E|-----------------------------4--4-----4-----4-----------0--0-----0-----0---------|


[Verse 2] and [Chorus 2]: Basic picking pattern 2 (with slap) 
e|--------x-----------------------x---------------|
B|-----2--x--------------------2--x---------------|
G|--4-----x--4--------------4-----x--4------------|
D|--------x---------[4x]----------x---------[4x]--|
A|--------x-----------------4-----x-----4---------|
E|--0-----x-----0-----------------x---------------|

e|--------x-----------------------x----------------------x---------------|
B|-----0--x-----------------------x-------------------2--x---------------|
G|--3-----x--3------[4x]-------6--x----------------4-----x--4------------|
D|--1-----x-----1-----------4-----x--4-----[2x]----------x---------[2x]--|
A|--------x-----------------------x----------------------x---------------|
E|--------x-----------------4-----x-----4----------0-----x-----0---------|


End of the song
e|------------------------------------------------------|
B|--------2--------------------------2------------------|
G|--4-----------4--------------4-----------4------------|
D|--2--2-----2-----2---[4x]-----------------------[4x]--|
A|-----------------------------4--4-----4-----4---------|
E|------------------------------------------------------|

e|------------------------------------------------------------------------------2---|
B|--------0-----------------------------------------------------2---------------2---|
G|--3-----------3------[4x]----------6--------------------4-----------4---------4---|
D|--1--1-----1-----1-----------4-----------4------[2x]--------------------------2---|
A|------------------------------------------------------------------------------2---|
E|-----------------------------4--4-----4-----4-----------0--0-----0-----0------0---|

            
            
Suggest correction
Creating personal tab
Creating personal tab
You can edit any tab online and save it as your Personal.

You can edit, replace or remove any tab part or add personal notes – all changes will be seen only by you.

Personal tabs can be accessed anytime from any device, even offline.
Learn more »
comments
print report bad tab
1 comment total.
+2 reply
jordi.err 84 May 14, 2017 03:18 PM

Amazing thank you

guest
You may want to rate the tab now too:
select rating
Wanna post a correction for this tab? Suggest correction