Oops, an error
Loading. Please wait.

Queen Of California solo tab

version 2
version 2

Solo

  • Live solo from John's Queen of California Crossroads 2013 performance.

Whole song

Interactive

133 views 1 this week
no commentswrite comment
1 2 3 4 5
2 more votes to show rating
add to favorites
×
Save as Personal and add changes to this tab that will be seen only by you. Learn more ›
×
You can save this tab as Personal to edit and correct it or add notes. All changes will be seen only by you. Learn more »
launch autoscroll
font size
0
reset
how to read this tab
guitar tuner
edit
Autoscroll
slow
fast
+/-
esc
set tempo
stop
About this tab version
Live solo from John's Queen of California Crossroads 2013 performance. Was this info helpful? Yes No
Solos are based off John's 2013 Queen of California Crossroads performance. Here's the video for reference.

https://www.youtube.com/watch?v=YhLMC8vmjlM

[Zane Carney's Solo] 
(1:40-2:17)
e|-------------------------------12-----------------------|--------------------------------------------------|
B|-------9-12-14b16-14b16r15b16~~~--16r14p12----12h14p12~~|---------------10---------------------------------|
G|-11b12-------------------------------------13-----------|-11pb9p7-----7----11pbr9b11-9b10-9b10-9-9b10r9p7--|
D|--------------------------------------------------------|---------9p7-------------------------------------9|
A|--------------------------------------------------------|--------------------------------------------------|
E|--------------------------------------------------------|--------------------------------------------------|

e|-----7-----9------10-------11-------12---14b16r12----------------------------------------------------------|
B|--------------------------------------------------14b15r12-9b10-------10-----------------------------------|
G|-7/8---8/9---9/10----10/11----9/13----13------------------------7-9------9sb10-7-9-7-----------6-----------|
D|--------------------------------------------------------------------9----------------9-7---6-9---9p6---9---|
A|-----------------------------------------------------------------------------------------9-----------9-----|
E|-----------------------------------------------------------------------------------------------------------|

e|------------------------|----------------------------------------------------------------------------------|
B|------------------------|-------------12-/16-15-14-12~-12/14-14-16----16b17-12/14----------12--------------|
G|-------11-13-13b14-11---|-------11h13------------------13/15-------15-------13/15-13-15-13-13b14-----------|
D|~9/13----------------13-|-11-13----------/16-15-14-13~-----------------------------------------------------|
A|------------------------|----------------------------------------------------------------------------------|
E|------------------------|----------------------------------------------------------------------------------|

e|-----------------------------------------------------------------------------------------------------------|
B|-10p9------------------------------------------------------------------------------------------------------|
G|------11p9p8-----------------------------------------------------------------------------------------------|
D|-------------11p9------9~~11p9~~---------------------------------------------------------------------------|
A|------------------9h11---------(12p11p9~~)-----------------------------------------------------------------|
E|-----------------------------------------------------------------------------------------------------------|

[John Mayer's Solo] 
(4:35-7:37)
e|-----------------|--------------------------|-----------------7-9-7h9p8p7----------------------------------|
B|-----------------|--------------------------|-7-7-9-9p7-10-10-------------7-10p9p7---7-9b10br9b10~~--------|
G|---9-9-9p8-------|----11p9-9p8--------------|-9-9----------------------------------9-----------------------|
D|-9---------9-7~--|--9----------7-7p6---9~~--|--------------------------------------------------------------|
A|-----------------|-------------------9------|--------------------------------------------------------------|
E|-----------------|--------------------------|--------------------------------------------------------------|

e|----------------------------|------------------------------------------------------------------------------|
B|-10p9-------9~-7------------|-----------------------------9p7---7------------------------------------------|
G|--------9--------9-9p8------|---8\6-8\6-------------6-9-6-----9---9p8---6----(6)---------------------------|
D|------9---9------------9-7~-|-7---------9-7-9-7---7-------------------9---(9)----9p7-----------------------|
A|----------------------------|-------------------9------------------------------------9---------------------|
E|----------------------------|------------------------------------------------------------------------------|

e|-----------------------------------------------------------------------------------------------------------|
B|----------7---------7---------7---------7---------7--------7--------9--------9---------9b10-9p7---9-10-7~--|
G|-------9~~--8---------8---------8---------8---------8--------8--------8--------8----------------9----------|
D|-9p7----------9p7-------9p(7)-----9p(7)-----9p(7)-----9p(7)----9p(7)----9p(7)----9p(7)---------------------|
A|-----9------------9----------------------------------------------------------------------------------------|
E|-----------------------------------------------------------------------------------------------------------|

e|------7-9-9p8p7----7--------------------(I'm completely clueless on this part to be honest)----------------|
B|-9-10-----------10---10---7-9p7---7-----------------------------------------------------------10-12--------|
G|------------------------9-------9---8-8h9p8--------------------------------------------8h9h11--------------|
D|--------------------------------------------9p7-----------------------------------11p9---------------------|
A|------------------------------------------------9p8p7---7h9p7---6--------6h7h9/11--------------------------|
E|------------------------------------------------------7-------7---7-7~-7-----------------------------------|

e|-------------------|----------------16p14-|----------------------------------------------------------------|
B|-------17-17-16----|-------17-17-16------~|-------17-17-16p14-------16-14-------16-14-------16-16p14-------|
G|----14----------14~|-~--14----------------|----14-------------16p14-------16-14-------16-14----------16-14-|
D|-16----------------|-16-------------------|-16-------------------------------------------------------------|
A|-------------------|----------------------|----------------------------------------------------------------|
E|-------------------|---------------------------------------------------------------------------------------|

e|-------14--------------------------------------------------------------------------------------------------|
B|-16-17-------16----16p14----14-----------------------------------------------------------------------------|
G|----------16~---14-------16----16p14----14-16-14h16p14----13-14-13h14p13-----------------------------------|
D|-------------------------------------16----------------16----------------14-14-16-14h16p14-----------------|
A|-------------------------------------------------------------------------------------------16--------------|
E|-----------------------------------------------------------------------------------------------------------|

e|-------------------------------------------------|----------------16-16-14-16b17-16b17-16-14-------14------|
B|-------------------------------------------16----|----17----16-------------------------------17b19---------|
G|----------------------------------------16----18-|-16----16----16------------------------------------------|
D|-13-14-13h14p13----------------16h18h19----------|---------------------------------------------------------|
A|----------------14-14-16h18h19-------------------|---------------------------------------------------------|
E|-------------------------------------------------|---------------------------------------------------------|

e|----------------------------------------------------------------------------------------|------------------|
B|----------------------------------------------------------------------------------------|------------------|
G|-17-16-14-16-14-------16----17-16----------7~~--------------------7-----7---------------|--------------7---|
D|----------------16-14----14-------7-9~p7------9p7-9p7-7~---7-9-7-9---9-9---9(overdrive)-|-9-7-9-7-9p7------|
A|-----------------------------------------9--------------9-------------------------------|------------9-----|
E|----------------------------------------------------------------------------------------|------------------|

e|-----------------------------------------------------------------------------------------------------------|
B|-----------------------------------------------------------------------------------------------------------|
G|------------------------------------------7------------------------------------------7---------------------|
D|-7-9-9-7-9-7-9p7---7------9-9p7-9-7-9p7-----7-9-9p7-9-7-9p7---7------9-9p7-9-7-9p7-----7-9-9p7-9-7-9p7---7-|
A|-----------------9----------------------9-------------------9----------------------9-------------------9---|
E|---------------------10p7---------------------------------------10p7---------------------------------------|

e|-------------------------------------------------------------------------------------------------------7---|
B|------------------------------------------9p7---------------------------------------------9p7---7-9/10-----|
G|----------------------7-----------------6-----9p8---6-----6-9p8---6---------------------------9------------|
D|------7-9p7-9-7-9p7-----7-9-9p7-9-7-9-------------9---(9)-------9---9-7---7---------6-7-9------------------|
A|--------------------9-----------------9---------------------------------9---7-7-9p7------------------------|
E|-10p7------------------------------------------------------------------------------------------------------|

e|------7------7------7-9-7h9-11-9h11-12-11h12-14-12-14-16-14-16-17-16b17-16b17------------------------------|
B|-9/10---9/10---9/10-----------------------------------------------------------------16-17-------14-17p16---|
G|------------------------------------------------------------------------------14-16-------14-16------------|
D|-----------------------------------------------------------------------------------------------------------|
A|-----------------------------------------------------------------------------------------------------------|
E|-----------------------------------------------------------------------------------------------------------|

e|-16b17r16-------------14-------------------------------------------------------------17-17-19-19-21b23-----|
B|----------------14-17----16-14----14-16-16b17p14----16b17p14----16b17-17b19-19/21-21-----------------------|
G|----------14-16----------------16----------------16----------16--------------------------------------------|
D|-----------------------------------------------------------------------------------------------------------|
A|-----------------------------------------------------------------------------------------------------------|
E|-----------------------------------------------------------------------------------------------------------|

e|-21b23-21b23-19-19----21b23-21b-21b23r19-19~17-20b21-20b21-20b21-20b21-20b21-20b21-20b21-20b21-------------|
B|-------------------21--------------------------------------20b21-20b21-20b21-20b21-20b21-20b21-------------|
G|-----------------------------------------------------------------------------------------------------------|
D|-----------------------------------------------------------------------------------------------------------|
A|-----------------------------------------------------------------------------------------------------------|
E|-----------------------------------------------------------------------------------------------------------|

                                      (he does some van halen stuff 
                                       here that i cant figure out)
e|-------7-------7-7-7------------------------------|--------------------------------------------------------|
B|-10b12---10b12-------10p9p7-7--------7------------|--9-7-9-7-9-7-9-9-7-9-7-9-7-9-9-7-9-7-9-7-9-------------|
G|------------------------------9-9b11---9pb11r7----V--7-7-7-7-7-7-7-7-7-7-7-7-7-7-7-7-7-7-7-7-7-------------|
D|-----------------------------------------------9-----7-7-7-7-7-7-7-7-7-7-7-7-7-7-7-7-7-7-7-7-7-------------|
A|-----------------------------------------------------------------------------------------------------------|
E|-----------------------------------------------------7-7-7-7-7-7-7-7-7-7-7-7-7-7-7-7-7-7-7-7-7-------------|

e|-------7-9-11b12-10-12b13-10-13b14-12b13r12p10----------12pb13r12b13----12-------10-15b16-12h14------------|
B|7-9-10-----------------------------------------12-12p10--------------12----12-12----------------15-12-12---|
G|---------------------------------------------------------------------------------------------------------14|
D|-----------------------------------------------------------------------------------------------------------|
A|-----------------------------------------------------------------------------------------------------------|
E|-----------------------------------------------------------------------------------------------------------|

e|------12-12-------12-12-------12-12-------12-------12-------12-------12-------12-------12-------12-14b16r14|
B|15b17-------15b17-------15b17-------15b17----15b17----15b17----15b17----15b17----15b17----15b17------------|
G|-----------------------------------------------------------------------------------------------------------|
D|-----------------------------------------------------------------------------------------------------------|
A|-----------------------------------------------------------------------------------------------------------|
E|-----------------------------------------------------------------------------------------------------------|

e|-12-14-------------------------12-12----12-12-14b16r14-12-14-------14b16-14-12-12-------14b16r14-12--------|
B|-------14b15-12-12----12-15b17-------15----------------------14p12-------------15\14p12----------15\14p12--|
G|-------------------14--------------------------------------------------------------------------------------|
D|-----------------------------------------------------------------------------------------------------------|
A|-----------------------------------------------------------------------------------------------------------|
E|-----------------------------------------------------------------------------------------------------------|

e|-14b16-14b16-14b17 (<--keep hitting this like 12 times)-------------------------------------------------|
B|---------------------------------------------------------5-5-5-7-7-7--9-9-9-7-7-7--------------------------|
G|---------------------------------------------------------6-6-6-8-8-8--9-9-9-8-8-8--------------------------|
D|---------------------------------------------------------7-7-7-9-9-9--9-9-9-9-9-9--------------------------|
A|-----------------------------------------------------------------------------------------------------------|
E|---------------------------------------------------------5-5-5-7-7-7--9-9-9-7-7-7--------------------------|

He does a few more riffs for the Outro but I won't do those unless someone requests them.

************************************

| (n) Ghost note
| h   Hammer-on
| p   Pull-off
| r   Release
| b   Bend
| br  Bend release
| pb  Pre-bend
| pbr Pre-bend release
| /   Slide up
| \   Slide down
| ~   Vibrato

************************************

            
            
Suggest correction
Creating personal tab
Creating personal tab
You can edit any tab online and save it as your Personal.

You can edit, replace or remove any tab part or add personal notes – all changes will be seen only by you.

Personal tabs can be accessed anytime from any device, even offline.
Learn more »
Give kudos to tab author, rate the tab!
1 2 3 4 5
comments
print report bad tab
guest
You may want to rate the tab now too:
select rating
Wanna post a correction for this tab? Suggest correction