Oops, an error
Loading. Please wait.

Queen Of California Tab

version 2
version 2

Whole song

Interactive

8,352 views 54 this week
2 commentsread comments
1 2 3 4 5
excellent!
x 10
add to favorites
launch autoscroll
font size
0
reset
how to read this tab
guitar tuner
Autoscroll
slow
fast
+/-
esc
set tempo
stop
Help us to improve Ultimate-Guitar.com Take our survey!
×
Author
Difficulty
intermediate
p pull of
h hammer
x palm slap
/ slide

GUITAR 1 – Capo in 4th
GUITAR 2 – Standard Tuning

** INTRO **

Guitar 1
---------x--------------------|
----0h1--x--1-------1---------|
---------x---------0-0--------|
----0h2--x--2p0-0h3---2-0-----|
---------x--------------------|
-3-------x--------------------|

Guitar 2
---------------------------------------------|
-9-9-7-7----5-5-7-7----9h7-9-/12----5-5-7-7--|
-9-9-8-8----6-6-8-8-----------------6-6-8-8--|
-------—-------------------------------------|
---------------------------------------------|
---------------------------------------------|

** VERSE **

Guitar 1
Same as Intro + Chords

Guitar 2 {licks}
-----------|-------------|--------|
-9h7-9-/12-|-------12----|-10b—12-|
-----------|-11-13----13-|--------|
------—----|-------------|--------|
-----------|-------------|--------|
-----------|-------------|--------|

G
Goodbye cold, goodbye rain
G
Goodbye sorrow, goodbye shame
C
Headed out west with my head phones on
Am                                              G
Boarding a flight with a song in the back of my soul

** CHORUS **
D
Just found out her ghost sliped down
C
The queen of california is stepin’ down, down...

-1-0-------------|
-----3-1-0-------|
-----------2-0---|
---------------0-|
-----------------|
-----------------|

** VERSE 2 **
G
Hello beauty, hello strange
G
Hello wonder, what's your name?
C
Looking for the sun that Neil Young hung
Am                        G
After the gold rush of 1971

** CHORUS **
D
Just found out her ghost sliped down
C
The queen of california is stepin’ down, down...        

** INSTRUMENTAL **

Guitar 1: G

Guitar 2
-----------|
-9p7-9-/12-|
-----------|
-----------|
-----------|
-----------|

** SOLO **
e|-----------------------------12---------------------------------------| 
B|-----12-14b16-14b16~---14b16----14b16--12~-------12-14b16-14b16~------| 
G|-/13------------------------------------------13----------------------| 
D|----------------------------------------------------------------------| 
A|----------------------------------------------------------------------| 
E|----------------------------------------------------------------------|  

e|------14-12--------------------12--12\11--11\9--9\7--7\4~----| 
B|-pb16-------14b16--12~------12-------------------------------| 
G|-------------------------------------------------------------| 
D|-------------------------------------------------------------| 
A|-------------------------------------------------------------| 
E|-------------------------------------------------------------|  

e|---11--11\9--9\7--7------------------------------------------| 
B|-9------------------9--9\2~----9\7---------------------------| 
G|----------------------------------\6--4~---------4h6----4~---| 
D|---------------------------------------------4h6------6------| 
A|-------------------------------------------------------------| 
E|-------------------------------------------------------------|  

e|-------------------------------------| 
B|-7--9--9b11-9b11~---r9p7---10b12~----| 
G|-------------------------------------| 
D|-------------------------------------| 
A|-------------------------------------| 
E|-------------------------------------|

** VERSE **
G
If you see her say, "Hello"
G
Just don't tell me, "I told you so"
C
Joni wrote Blue in her house by the sea
Am                                              G
I gotta believe there’s another color waiting on me...
G
To set me free

** CHORUS **
D
Just found out her ghost sliped down
C
The queen of california is stepin’ down, down...
Suggest correction
What's this?
You can suggest a correction to this tab. Community and Mods will review your correction and vote to approve or reject it.
comments
print report bad tab
2 comments total.
0 reply
degenr856 24 wrote on September 28 2013, 05:21 pm

Thank you!

0 reply
rossmortimer 13 wrote on November 4 2013, 12:10 pm

This is great

guest
You may want to rate the tab now too:
select rating
Please do not post tabs as comments. Select "correction" instead!