Oops, an error
Loading. Please wait.

Ramble On Rose Tab

136 views 1 this week
no commentswrite comment
1 2 3 4 5
3 more votes to show rating
add to favorites
launch autoscroll
font size
0
reset
how to read this tab
guitar tuner
Autoscroll
slow
fast
+/-
esc
set tempo
stop
Author
Difficulty
intermediate
About this tab version
This is from John Mayer's instagram...just messing around with some Dead and Co. ramble on rose. Was this info helpful? Yes No
 
[SOLO]

   D                D                     D               D
e|---------------------------------------------------------------------------|
B|---------------------------------------------------------------------------|
G|-------------------7---------------------7---------------------------------|
D|-------------------7---------------------7---------------------7-9-----7-9-|
A|-5---5-------5-5-x-5-x-5---5-------5-5-x-5-x-5---5-------5-7s9-----8h9-----|
E|---7---5h7p5-------------7---5h7p5-------------7---5h7p5-------------------|

              E                                      F#m
e|-----------------------9---------------------------------------------------|
B|--------------------12--------------------------------10-pbr12-10----------|
G|-7-pbr9-7-8/9-10/13------pbr11----9------9----9-10/11----------------------|
D|-------------------------------11---9s11---11------------------------------|
A|---------------------------------------------------------------------------|
E|---------------------------------------------------------------------------|

     G         D        D        G    A                       
e|----------------------------10---------------------------------------------|
B|--------12-9/10-----------10-----3--5-5-3s5-----------8p7------------------|
G|------12-------11-------11------4---6-6----6-------------------9\7~--------|
D|-----9-----------12-9/12-------5----7-7-----7-6p5---------9/11-------------|
A|-9/10---------------------------------------------7/9----------------------|
E|---------------------------------------------------------------------------|

     D                                    E
e|-------10-12br-10-12----10-----------10-12-14p12---------------------------|
B|-----10--------------12------------10------------15p12---------------------|
G|-9/11----------------------10s11-----------------------13------------------|
D|---------------------------------12-----------------------15-14-12-11------|
A|----------------------------------------------------------------------14---|
E|---------------------------------------------------------------------------|

                F#m                   G              D     D            G
e|---------------------------------------------------------14-15-16-17-------|
B|------------------14----------------------17p15----15-17-------------17br--|
G|----------------14---pbr16-14----------16-------16-------------------------|
D|-------14~-14/16--------------16-16/17-------------------------------------|
A|-12\11---------------------------------------------------------------------|
E|---------------------------------------------------------------------------|

             A                                    D     
e|---------------------------------------------------------10---------14--15-|
B|-17p15----17br17-15-14-15-16br-15-14---------------10-12-------------------|
G|-------16----------------------------16-14-12-9s11----------9br-9/14--15---|
D|---------------------------------------------------------------------------|
A|---------------------------------------------------------------------------|
E|---------------------------------------------------------------------------|
 
    E                                       F#m               G
e|--16-14-------------------12-----------------------------------------------|
B|--------17-15----------------14--------------------------------5p3-3-5-TBD-|
G|-x------------16-14/12h13-------12br-----------2-2-5/4-2------4---4--------|
D|-------------------------------------14--0-2/4-----------4-4/5-------------|
A|---------------------------------------------------------------------------|
E|---------------------------------------------------------------------------|


************************************

| x   Dead note
| h   Hammer-on
| p   Pull-off
| br  Bend release
| pbr Pre-bend release
| /   Slide up
| \   Slide down
| ~   Vibrato

************************************
Suggest correction
Give kudos to tab author, rate the tab!
1 2 3 4 5
comments
print report bad tab
guest
You may want to rate the tab now too:
select rating
Wanna post a correction for this tab? Suggest correction