Oops, an error
Loading. Please wait.

Rosie chords

version 1
version 1

Whole song

21,184 views 741 this week
7 commentsread comments
1 2 3 4 5
x 32
add to favorites
×
Save as Personal and add changes to this tab that will be seen only by you. Learn more ›
×
You can save this tab as Personal to edit and correct it or add notes. All changes will be seen only by you. Learn more »
launch autoscroll
font size
0
reset
transpose
0
reset
display chords
guitar tuner
edit
Autoscroll
slow
fast
+/-
esc
set tempo
stop
Author
Difficulty
About this tab version
Pretty unsure about some of the chords... if you have more insights, let me know. Was this info helpful? Yes No
Strumming
There is no strumming pattern for this song yet. and get +5 IQ
John Mayer – Rosie
------------------

[Intro]
C   D   C   D
C   D   C   G

[Verse 1] 
 C                            D
Rosie, come down and get the door for me
 C                                G
I'm drunk again, remember when we used to be
 C                         D 
Rosie, I know you said no more for me
     C                                       G
But that was all before this dream that just came to me


[Chorus 1]
       Bm
Don't leave me here
           Em
Under the January rain
            Bm
Come let me in
         A#           Am
Take my heart by the hand
             D                  C             D
And lead me back to your room (back to your room)
 C    D                  C           D
And sing me your tune (sing me your tune)


[Interlude]
C  D  C  G


[Verse 2]
 C                       D
Rosie, you don't have to hide his things
     C                             G  
I'm fine with all the sorrow that tomorrow brings
 C                       D
Rosie, don't you know my love is true
    C                         G
Perdon and lo siento, see, I learned those words for you


[Chorus 2]
       Bm
Don't leave me here
           Em
Under the January rain
            Bm
Come let me in
         A#           Am
Take my heart by the hand
             D
And lead me back to your room (back to your room)
      D
And sing me your tune (sing me your tune)


[Solo]
C  D  C  G
C  D  C  G
          C                                     C
e|-------|------------------|------------------|----------------------|-----------------|
B|----10-|-12---10-12-10----|---------------12-|-10---10--------------|--------------10-|
G|-12----|----------------9-|-12-------9-12----|---------12-9---------|----------9-12---|
D|-------|------------------|------------------|----------------12-12-|-----------------|
A|-------|------------------|------------------|----------------------|-----------------|
E|-------|------------------|------------------|----------------------|-----------------|
  
   C                                       G
e|-------------------|-------------------|--------------------|---------------|
B|-12---10-12-10-----|-15b17--15-13---15-|-12---10------------|---------------|
G|----------------12-|-------------------|---------9----------|-----------4-7-|
D|-------------------|-------------------|-------------12-12--|---------------|
A|-------------------|-------------------|--------------------|---------------|
E|-------------------|-------------------|--------------------|---------------|

    C                                D
e|-----------------|----------------|----------------|--------------|
B|-----------------|----------------|----------------|--------------|
G|-5---------------|------------2-5-|-4--------------|-----------4--|
D|---7-4-----------|----------------|---5------------|--------5-----|
A|-----------------|----------------|-----5----------|-----5--------|
E|-----------------|----------------|----------------|--------------|

   C                                 G        
e|---------------|-----------------|-------------------|--------------------------------------|
B|-5-------------|---8-8--8-10-----|-15b17-pb17-15--15-|-13--13-------------------------------|
G|---7--------7--|-/9-9---------12-|-------------------|--------14b16--pb16-bp16-14b16br14----|
D|-----7---7/9---|-----------------|-------------------|-----------------------------------14-|
A|---------------|-----------------|-------------------|--------------------------------------|
E|---------------|-----------------|-------------------|--------------------------------------|

  Bm 
(part of chorus 3 already)
e|--------------|------------|
B|--------------|------------|
G|-11-----11-14-|-12---------|
D|--------------|------------|
A|--------------|------------|
E|--------------|------------|

[Chorus 3]
       Bm
Don't leave me here
           Em
Under the January rain
            Bm
Come let me in
         A#           Am
Take my heart by the hand
             D                  C             D
And lead me back to your room (back to your room)
 C    D                  C           D
And sing me your tune (sing me your tune)


[Outro]
D
Suggest correction
Creating personal tab
Creating personal tab
You can edit any tab online and save it as your Personal.

You can edit, replace or remove any tab part or add personal notes – all changes will be seen only by you.

Personal tabs can be accessed anytime from any device, even offline.
Learn more »
comments
print report bad tab
7 comments total. Showing first comments.
0 reply
IceOrb 2,626 Apr 18, 2017 01:32 AM, edited at 07:11 am

.

0 reply
hartrobbins 10 Apr 21, 2017 05:40 PM

This tab is perfect!!!

0 reply
Meuwh 663 Jun 06, 2017 04:10 AM

Great tab!

guest
You may want to rate the tab now too:
select rating
Wanna post a correction for this tab? Suggest correction