Oops, an error
Loading. Please wait.

Rosie tab

version 1
version 1

Whole song

  • Tab for "Rosie" containing all 3 guitar parts (chords, solos, bass).
8,383 views 207 this week
no commentswrite comment
1 2 3 4 5
3 more votes to show rating
add to favorites
×
Save as Personal and add changes to this tab that will be seen only by you. Learn more ›
×
You can save this tab as Personal to edit and correct it or add notes. All changes will be seen only by you. Learn more »
launch autoscroll
font size
0
reset
how to read this tab
guitar tuner
edit
Autoscroll
slow
fast
+/-
esc
set tempo
stop
Author
Difficulty
John Mayer "Rosie"
Tabbed by Johann Za


[Intro]
Rhythm Guitar Intro Chords: 
    C   D
e|-----------------------------------------------------------------------------|
B|--5---7----------------------------------------------------------------------|
G|--5---7----------------------------------------------------------------------|
D|--5---7----------------------------------------------------------------------|
A|--3---5----------------------------------------------------------------------|
E|-----------------------------------------------------------------------------|

[Lead Guitar Intro Melody]
e|-------------------------------------------------------------------------------10-10b--|
B|--\12-----------------------------------------12b--------pb12p10-pb12p10--10-12--------|
G|-----h14-14----12-12--14b------------12-12-------14-14------------------12-------------|
D|------------\14-----14---14b-12~--\14-----14-------------------------------------------|
A|---------------------------------------------------------------------------------------|
E|---------------------------------------------------------------------------------------|


e|--12-----------------------------------------------------------------------|
B|----12p(10)h(12)p(10)/(8)--------------------------------------------------|
G|---------------------------------------------------------------------------|
D|---------------------------------------------------------------------------|
A|---------------------------------------------------------------------------|
E|---------------------------------------------------------------------------|

[Verse]
Rhythm Guitar Chords: 
    C   D
e|-----------------------------------------------------------------------------|
B|--5---7----------------------------------------------------------------------|
G|--5---7----------------------------------------------------------------------|
D|--5---7----------------------------------------------------------------------|
A|--3---5----------------------------------------------------------------------|
E|-----------------------------------------------------------------------------|

[Chorus]
e|-------------------------------------------------------------------------------|
B|--7-5--------7-5--------9-7---7-9-7-9--9~--9~---7-5---5-7-9-7--7-5---5--7------|
G|--7-5-7-5-7--7-5-7-7\---9-7-9-7-9-7-9--9~--9~---7-5-7-5-7-9-7--7-5---5--7------|
D|------7-5-7------7-7\-------9-----------------------7----------------5--7------|
A|---------------------------------------------------------------------3--5------|
E|-------------------------------------------------------------------------------|


e|----------------------------3----------------------------------------------|
B|--5-5--7--------12------5-5-5--7--------12---------------------------------|
G|--5-5--7---12-14--14----5-5-5--7---12-14--14-------------------------------|
D|--5-5--7----------------5-5-5--7-------------------------------------------|
A|--3-3--5----------------3-3----5-------------------------------------------|
E|---------------------------------------------------------------------------|

[Melody leading into next section]
e|-----------------------------------------------------------------------------------10-10b--|
B|--[12]b-------------------------------------15--[12]b--------pb12p10-pb12p10--10-12--------|
G|-------h14-14----12-12--14b------------12-12---------h14-14------------------12------------|
D|--------------\14-----14---14b-12~--\14----------------------------------------------------|
A|-------------------------------------------------------------------------------------------|
E|-------------------------------------------------------------------------------------------|


e|--12-14-12--10-12-10--7-10------------------------------|
B|--------------------------10~---------------------------|
G|--------------------------------------------------------|
D|--------------------------------------------------------|
A|--------------------------------------------------------|
E|--------------------------------------------------------|

[Verse]
Rhythm Guitar Chords: 
    C   D
e|-----------------------------------------------------------------------------|
B|--5---7----------------------------------------------------------------------|
G|--5---7----------------------------------------------------------------------|
D|--5---7----------------------------------------------------------------------|
A|--3---5----------------------------------------------------------------------|
E|-----------------------------------------------------------------------------|

[Chorus]
Similar structure as first, hard to tell what's going on, so play around w/ the same notes/chords as previous:
e|-------------------------------------------------------------------------------|
B|--7-5--------7-5--------9-7---7-9-7-9--9~--9~---7-5---5-7-9-7--7-5---5--7------|
G|--7-5-7-5-7--7-5-7-7\---9-7-9-7-9-7-9--9~--9~---7-5-7-5-7-9-7--7-5---5--7------|
D|------7-5-7------7-7\-------9-----------------------7----------------5--7------|
A|---------------------------------------------------------------------3--5------|
E|-------------------------------------------------------------------------------|


e|----------------------------3----------------------------------------------|
B|--5-5--7--------12------5-5-5--7--------12---------------------------------|
G|--5-5--7---12-14--14----5-5-5--7---12-14--14-------------------------------|
D|--5-5--7----------------5-5-5--7-------------------------------------------|
A|--3-3--5----------------3-3----5-------------------------------------------|
E|---------------------------------------------------------------------------|

[Solo]
w/ Wah Pedal
e|---------------------------------------------------------------------------------------------------------|
B|12-10-12-12-10-12----------12-10-10-8~------------10-12-12-10-12-10-12\17-15---15------------------------|
G|-----------------9-12--9-12--------9--7-7-9~--9-12--------------------------16b--14-12-------------------|
D|--------------------------------------------------------------------------------------14-12-12-12-14/----|
A|---------------------------------------------------------------------------------------------------------|
E|---------------------------------------------------------------------------------------------------------|


e|---------------------------------------------------12-12-10-10-7-7---------------------------------------|
B|--------------------------------------8-8-8h10--\12---------------10-10-\12p10---------------------------|
G|--7----------5------------9p7---7~--\9-9--------------------------------------12-9-11b~-9h11h12p11p9-----|
D|\9-10-7----\7-7-5--------7---5-5--------------------------------------------------------------------12-9\|
A|-------9-5-------7-5--5-7--------------------------------------------------------------------------------|
E|---------------------------------------------------------------------------------------------------------|

[Chorus]
Variations but similar to previous chorus
e|----------------------------3----------------------------------------------|
B|--5-5--7--------12------5-5-5--7--------12---------------------------------|
G|--5-5--7---12-14--14----5-5-5--7---12-14--14-------------------------------|
D|--5-5--7----------------5-5-5--7-------------------------------------------|
A|--3-3--5----------------3-3----5-------------------------------------------|
E|---------------------------------------------------------------------------|

[Outro]
Melody w/ Wah Pedal


e|---------------------------------------------------------------------------|
B|---------------------------------------------------------------------------|
G|-14b-14--14-12--12~--------------------------------------------------------|
D|--------------14---14-12-14-14\17-16-17\19-------16b-16b-------------------|
A|-------------------------------------------17-17---------------------------|
E|---------------------------------------------------------------------------|




e|------------------------------------------------------------------12-----------------------------------|
B|------------------------15-13---------------------13-13/------13-15--13h15p13--13----------------------|
G|----14b--14-12--12-14-12------12b11-12b12b-----\14-----/---\14---------------14--14-12-11~-----11~11~--|
D|-12-----------14--------------------------12b---------------------------------------------12-12--------|
A|-------------------------------------------------------------------------------------------------------|
E|-------------------------------------------------------------------------------------------------------|




e|-----------------------------------------------------|
B|-----13-13/---15-15----------------------------------|
G|--\14-------14-------14-12--12-----------------------|
D|--------------------------14--14-12-12-16------------|
A|-----------------------------------------------------|
E|-----------------------------------------------------|


************************************


| (n) Ghost note
| h Hammer-on
| p Pull-off
| b Bend
| pb Pre-bend
| / Slide up
| \ Slide down
| ~ Vibrato
| [n] Pinch


************************************


            
            
Suggest correction
Creating personal tab
Creating personal tab
You can edit any tab online and save it as your Personal.

You can edit, replace or remove any tab part or add personal notes – all changes will be seen only by you.

Personal tabs can be accessed anytime from any device, even offline.
Learn more »
Give kudos to tab author, rate the tab!
1 2 3 4 5
comments
print report bad tab
guest
You may want to rate the tab now too:
select rating
Wanna post a correction for this tab? Suggest correction