Oops, an error
Loading. Please wait.

Rosie tab

version 2
version 2

Whole song

  • Tab for "Rosie" containing all 3 guitar parts (chords, solos, bass).
4,900 views 309 this week
3 commentsread comments
1 2 3 4 5
x 10
add to favorites
×
Save as Personal and add changes to this tab that will be seen only by you. Learn more ›
×
You can save this tab as Personal to edit and correct it or add notes. All changes will be seen only by you. Learn more »
launch autoscroll
font size
0
reset
how to read this tab
guitar tuner
edit
Autoscroll
slow
fast
+/-
esc
set tempo
stop
About this tab version
Tab for "Rosie" containing all 3 guitar parts (chords, solos, bass). Was this info helpful? Yes No
[Intro]
 Chords: All played downstrokes
   C            D
e|-8--       e -10-|
B|-8--       B -10-|
G|-9--       G -11-|
D|-10-       D -12-|
A|-10-       A -12-|
E|-8-- x8    E -10-| x8

Base played on guitar:
 P.M (Palm muted)
e|-----------------|
B|-----------------|
G|-----------------|
D|-----------------|
A|---5-5-----5---5-|
E|-5-----5-5---5---|

[Intro Solo]
#b#= bend from one fret sound to another(e.g 8b10) /=slide up \=slide down v=vibrato h= 
hammer on p= pull off

e|--------------------------|
B|-10b12-10v-----8---10-----|
G|------------7/9-9----9\7v-|
D|--------------------------|
A|--------------------------|
E|--------------------------|

e|---------------------------------------------------12---|
B|----8----10b12-10v----10b12-10b12p10--10/12h15---15--12-|
G|-7/9-9--------------------------------------------------|
D|--------------------------------------------------------|
A|--------------------------------------------------------|
E|--------------------------------------------------------|

Verse 1:
 Chords: All played downstrokes
   C          D
e|-8--     e -10-|
B|-8--     B -10-|
G|-9--     G -11-|
D|-10-     D -12-|
A|-10-     A -12-|
E|-8--     E -10-|

Base played on guitar:
 P.M (Palm muted)
e|-----------------|
B|-----------------|
G|-----------------|
D|-----------------|
A|---5-5-----5---5-|
E|-5-----5-5---5---|

C(x8)
Rosie
D(x8)
Come down and get the door for me
C(x8)                             D(x8)
I'm drunk again, remember when we used to be?
C(x8)
Rosie
D(x8)
I know you said no more for me
C(x8)                                        D(x8)
But that was all before this dream that just came to me

Chorus:

Chords: (sound extra cool if you play with some hammers and pull-offs)
  Bm       Em7      A#maj7     Am
e|-2-    e -7-     e -0-     e -0-|  
B|-3-    B -8-     B -3-     B -1-|
G|-4-    G -7-     G -2-     G -2-|
D|-4-    D -9-     D -3-     D -2-|
A|-2-    A -7-     A -1-     A -0-|
E|-x-    E -x-     E -x-     E -x-|

Bm
Don't leave me here
          Em7
Under the January rain
            Bm
Come let me in
       A#maj7        Am
Take my heart by the hand

And lead me back to your room
  C   D  Em   D     C    D    Em   D
e|-3---5---7---5-----8----10---12---10|
B|-5---7---8---7-----8----10---12---10|
G|-5---7---9---7-----9----11---12---11|
D|-5---7---9---7-----10---12---14---12|
A|-3---5---7---5-----10---12---14---12|
E|-x---x---x---x-----8----10---12---10| X2
And sing me your tune
  C   D  Em   D     C    D    Em   D
e|-3---5---7---5-----8----10---12---10|
B|-5---7---8---7-----8----10---12---10|
G|-5---7---9---7-----9----11---12---11|
D|-5---7---9---7-----10---12---14---12|
A|-3---5---7---5-----10---12---14---12|
E|-x---x---x---x-----8----10---12---10| X2

More coming soon :)

            
            
Suggest correction
Creating personal tab
Creating personal tab
You can edit any tab online and save it as your Personal.

You can edit, replace or remove any tab part or add personal notes – all changes will be seen only by you.

Personal tabs can be accessed anytime from any device, even offline.
Learn more »
comments
print report bad tab
3 comments total.
0 reply
incubi4211 10 Aug 26, 2017 02:39 AM

great tab! Accidently played a C/G as the first chord and sounded cool as well, definitely recommend a try.

guest
You may want to rate the tab now too:
select rating
Wanna post a correction for this tab? Suggest correction