Oops, an error
Loading. Please wait.

Route 66 Tab

11,727 views 6 this week
2 commentsread comments
1 2 3 4 5
2 more votes to show rating
add to favorites
launch autoscroll
font size
0
reset
how to read this tab
guitar tuner
Autoscroll
slow
fast
+/-
esc
set tempo
stop
Help us to improve Ultimate-Guitar.com Take our survey!
×
Author
Difficulty
intermediate
John Mayer - Route 66 (solo)
From Cars Soundtrack
Standard Tuning


e|----------------3---------------------------------------------------------|
B|----------3-5-3---3-6-----------5-3-------6-------------------------------|
G|-------/4-------------5/6/5-3---5-3-------5brp3--------3b-----------------|
D|---2-5------------------------5-----5-3-5--------5-3-5----5p3-------------|
A|-5-------------------------------------------------------------5----------|
E|--------------------------------------------------------------------------|

e|---------3---3-5p3h3p3---3-3-8b-8-6-8-----6b-8brp6---6-------3------------|
B|-3-3-6-6---6-----------6--3-----------8-8----------8---8p6-3-3------------|
G|---------------------------------------------------------------5-3--------|
D|-------------------------------------------------------------------5------|
A|--------------------------------------------------------------------------|
E|--------------------------------------------------------------------------|

e|---------------------------------------3----------------------------------|
B|---------------------------------------3----------------------------------|
G|---------5-7-------5bp3-------3b----------5-5-----------------------------|
D|-----4-7-------2-5------5-3-5----5p3------4-4-----------------------------|
A|-/55---------3-----------------------5----5-5-----------------------------|
E|--------------------------------------------------------------------------|


This is the first half of the solo, will finish it soon!
Suggest correction
Give kudos to tab author, rate the tab!
1 2 3 4 5
comments
print report bad tab
2 comments total.
0 reply
Meat Flickwood 109 Jul 25, 2011 09:50 PM

5 stars but I think it's a bit simpler cos i cant find the extra notes you have in there... well the way i play it is anyway and it sounds as good


e|----------------3---------------------------------------------------------|
B|----------3-5-3---3-6-----------5-3-------6-------------------------------|
G|-----0-/4-------------5/6/5-----5-3---5---5brp3----3---3b-----------------|
D|---2--------------------------------5------------5---5----5p3p0-----------|
A|-5------------------------------------------------------------------------|
E|--------------------------------------------------------------------------|

e|---------3---3-5-3h5p3---3-3-8b-8-6-8-----6b-8brp6---6--------------------|
B|-3-3-6-6---6-----------6--3----------8-8-8--------8---8p6/3-3------------|
G|---------------------------------------------------------------5-3--------|
D|-------------------------------------------------------------------5------|
A|--------------------------------------------------------------------------|
E|--------------------------------------------------------------------------|

e|---------------------------------------3----------------------------------|
B|---------------------------------------3----------------------------------|
G|---------5-7-------5bp3-3-----3b----------5-5-----------------------------|
D|-----4-7-------2-5--------5-5----5p3p0----4-4-----------------------------|
A|-/55---------3----------------------------5-5-----------------------------|
E|--------------------------------------------------------------------------|

0 reply
Meat Flickwood 109 Jul 25, 2011 10:09 PM

Sorry this is what i meant::



e|----------------3-------------------------------------------------|
B|----------3-5-3---3-6--------5-3-------6--------------------------|
G|-------/4-------------5/6/5--5-3---3---5brp3--3-----3b------------|
D|---2-/5--------------------------5--------------5-5----5p3p0------|
A|-5----------------------------------------------------------------|
E|------------------------------------------------------------------|

e|----------3---3-5-3--3---8b-8-6-8-----6b-8brp6---6----------------|
B|-3--3-6-6---6------6--3----------8-8-8---------8---8p6/3-3--------|
G|-----------------------------------------------------------5p3p0--|
D|------------------------------------------------------------------|
A|------------------------------------------------------------------|
E|------------------------------------------------------------------|

e|----------------------------------------3-------------------------|
B|----------------------------------------3-------------------------|
G|----------5-7-------5bp3-3-----3b----------5-5--------------------|
D|------4-7-------2-5--------5-5----5p3p0----4-4--------------------|
A|-/5-5---------3----------------------------5-5--------------------|
E|------------------------------------------------------------------|

guest
You may want to rate the tab now too:
select rating
Wanna post a correction for this tab? Suggest correction