Oops, an error
Loading. Please wait.

Say Tab

version 1
version 1

Acoustic

Whole song

Interactive

20,475 views 18 this week
no commentswrite comment
1 2 3 4 5
please rate
add to favorites
launch autoscroll
font size
0
reset
how to read this tab
guitar tuner
Autoscroll
slow
fast
+/-
esc
set tempo
stop
Help us to improve Ultimate-Guitar.com Take our survey!
×
Author
Difficulty
Capo
novice
3rd fret
This is my arrangement of John Mayer's song Say

Standard Tuning (E A D G B E)
Capo on 3rd

 Intro
  Q=150
 4/4
  
  E E E E E E E E   +E  E E E E E E E   +E  E E E E E E E   +E  E E E E E E E
|---3-----3-----3-|-(3)-3-----3-----3-|-(3)-3-----3-----3-|-(3)-2-----3-3-3-3--|
|-----3-----3-----|-------3-----3-----|-------3-----3-----|-------3-----3------|
|-------0-----0---|---------0-----0---|---------0-----0---|---------2-----2----|
|-----------------|-------------------|-------------------|--------------------|
|-----------------|--3----------------|-------------------|--------------------|
|-3---------------|-------------------|--0----------------|--2-----------------|
  W                  W                   W                   W


 Verse
  Q   H       Q     +Q    H.             W                 H       E E E E
|-5---7-------5---|-(5)---3------------|---3-----3-----3-|-------2-3-3-3-3-|
|---3---3-------3-|-----3----3-------3-|-----3-----3-----|---3-----3---3---|
|-----4---4---4---|-------0----0---0---|-------0-----0---|-----2-----2---2-|
|-----------5-----|--------------2-----|-----------------|-----------------|
|-----------------|--3-----------------|-----------------|-----------------|
|-3---------------|--------------------|-0---------------|-2---------------|
  E E E E E E E E    E  E E  E E E E E   E E E E E E E E   E E E E E E E E


  Q   H       Q     +Q    H.             W                 H       E E E E
|-5---7-------5---|-(5)---3------------|---3-----3-----3-|---2-----3-3-3-3-|
|---3-----3-------|-----3------3-------|-----3-----3-----|-----3---3-------|
|-----0-----0---0-|-------0------0---0-|-------0-----0---|-------2---2---2-|
|-------0-----0---|----------2-----2---|-----------------|-------------0---|
|-----------------|--3-----------------|-----------------|-----------------|
|-3---------------|--------------------|-0---------------|-2---------------|
  E E E E E E E E    E  E E  E E E E E   E E E E E E E E   E E E E E E E E


  Q   H       Q     +Q    H.             W                 H       E E E E
|-5---7-------5---|-(5)---3------------|---3-----3-----3-|---2-----3-3-3-3-|
|---------3---3---|------------3---3---|-----3-----3-----|-----3---3---3---|
|-------0---0---0-|-----0----0---0-----|-------0-----0---|-------2---2-----|
|-----0-----------|-------2----------2-|-----------------|---------------0-|
|---2-------------|--3-----------------|-----------------|-----------------|
|-3---------------|--------------------|-0---------------|-2---------------|
  E E E E E E E E    E  E E  E E E E E   E E E E E E E E   E E E E


  Q   H       Q     +Q    H.             W                 H       E E E E
|-5---7-------5---|-(5)---3------------|---3-----3-----3-|---2-----8-8-8-8-|
|---3-----3-----3-|-----3------3-----3-|-----3-----3-----|-----3-----5-----|
|-----0-----0-----|-------0------0-----|-------0-----0---|-------2-----7---|
|-------0-----0---|----------2-----2---|-----------------|---------------0-|
|-----------------|--3-----------------|-----------------|---------5-------|
|-3---------------|--------------------|-0---------------|-2---------------|
  E E E E E E E E    E  E E  E E E E E   E E E E E E E E   E E E E E E E E


 Chorus
  +E  E H.             +H        E E E E
|-(8)-7-7------------|-(7)-------5-5-5-5-|
|-----3------3-----3-|-----3-----3-----3-|
|-------0------0-----|-------0-----0-----|
|----------0-----0---|---------2-----2---|
|--------------------|--3----------------|
|--3-----------------|-------------------|
   E  E E  E E E E E    E  E E E E E E E


  +E  E H.             H       E E E E
|-(5)-7-7------------|---2-----8-8-8-8-|
|-----0------0-----0-|-----3-----5-----|
|-------0------0-----|-------2-----7---|
|----------0-----0---|---------------0-|
|--------------------|---------5-------|
|--0-----------------|-2---------------|
   E  E E  E E E E E   E E E E E E E E


  +E  E H.             +H        E E E E
|-(8)-7-7------------|-(7)-------5-5-5-5-|
|-----3------3-----3-|-----3-----3-----3-|
|-------0------0-----|-------0-----0-----|
|----------0-----0---|---------2-----2---|
|--------------------|--3----------------|
|--3-----------------|-------------------|
   E  E E  E E E E E    E  E E E E E E E


  +E  E H.
|-(5)-3-3------------|---2-------------|
|-----0------0-----0-|-----3---3-------|
|-------0------0-----|-------2---2---2-|
|----------0-----0---|-------------0---|
|--------------------|-----------------|
|--0-----------------|-2---------------|
   E  E E  E E E E E   E E E E E E E E


 Interlude
  E E E E E E E E   +E  E E E E E E E   +E  E E E E E E E   +E  E E E E E E E
|---3-----3-----3-|-(3)-3-----3-----3-|-(3)-3-----3-----3-|-(3)-2-----3-3-3-3-|
|-----3-----3-----|-------3-----3-----|-------3-----3-----|-------3-----3-----|
|-------0-----0---|---------0-----0---|---------0-----0---|---------2-----2---|
|-----------------|-------------------|-------------------|-------------------|
|-----------------|--3----------------|-------------------|-------------------|
|-3---------------|-------------------|--0----------------|--2----------------|
  W                  W                   W                   W


 Verse
  Q   H       Q     +Q    H.             W                 H       E E E E
|-5---7-------5---|-(5)---3------------|---3-----3-----3-|-------2-3-3-3-3-|
|---3---3-------3-|-----3----3-------3-|-----3-----3-----|---3-----3---3---|
|-----4---4---4---|-------0----0---0---|-------0-----0---|-----2-----2---2-|
|-----------5-----|--------------2-----|-----------------|-----------------|
|-----------------|--3-----------------|-----------------|-----------------|
|-3---------------|--------------------|-0---------------|-2---------------|
  E E E E E E E E    E  E E  E E E E E   E E E E E E E E   E E E E E E E E


  Q   H       Q     +Q    Q   H         W                 H       E E E E
|-5---7-------5---|-(5)---3---0-------|---3-----3-----3-|---2-----3-3-3-3-|
|---3-----3-------|-----3-----3-------|-----3-----3-----|-----3---3-------|
|-----0-----0---0-|-------0-----0---0-|-------0-----0---|-------2---2---2-|
|-------0-----0---|---------2-----2---|-----------------|-------------0---|
|-----------------|--3----------------|-----------------|-----------------|
|-3---------------|-------------------|-0---------------|-2---------------|
  E E E E E E E E    E  E E E E E E E   E E E E E E E E   E E E E E E E E


  Q   H       Q     +Q    H.             W                 H       E E E E
|-5---7-------5---|-(5)---3------------|---3-----3-----3-|---2-----3-3-3-3-|
|---------3---3---|------------3---3---|-----3-----3-----|-----3---3---3---|
|-------0---0---0-|-----0----0---0-----|-------0-----0---|-------2---2-----|
|-----0-----------|-------2----------2-|-----------------|---------------0-|
|---2-------------|--3-----------------|-----------------|-----------------|
|-3---------------|--------------------|-0---------------|-2---------------|
  E E E E E E E E    E  E E  E E E E E   E E E E E E E E   E E E E


  Q   H       Q     +Q    Q   H         +E  E E E Q   Q     H       E E E E
|-5---7-------5---|-(5)---3---0-------|-(0)-0-3-5-7---3---|---2-----8-8-8-8-|
|---3-----3-----3-|-----3-----3-----3-|-----3-----0-----3-|-----3-----5-----|
|-----0-----0-----|-------0-----0-----|-------0-----0-----|-------2-----7---|
|-------0-----0---|---------2-----2---|---------0-----0---|---------------0-|
|-----------------|--3----------------|-------------------|---------5-------|
|-3---------------|-------------------|--0----------------|-2---------------|
  E E E E E E E E    E  E E E E E E E    E  E E E E E E E   E E E E E E E E


 Chorus
  +E  E H.             +H        E E E E
|-(8)-7-7------------|-(7)-------5-5-5-5-|
|-----3------3-----3-|-----3-----3-----3-|
|-------0------0-----|-------0-----0-----|
|----------0-----0---|---------2-----2---|
|--------------------|--3----------------|
|--3-----------------|-------------------|
   E  E E  E E E E E    E  E E E E E E E


  +E  E H.             H       E E E E
|-(5)-7-7------------|---2-----8-8-8-8-|
|-----0------0-----0-|-----3-----5-----|
|-------0------0-----|-------2-----7---|
|----------0-----0---|---------------0-|
|--------------------|---------5-------|
|--0-----------------|-2---------------|
   E  E E  E E E E E   E E E E E E E E


  +E  E H.             +H        E E E E
|-(8)-7-7------------|-(7)-------5-5-5-5-|
|-----3------3-----3-|-----3-----3-----3-|
|-------0------0-----|-------0-----0-----|
|----------0-----0---|---------2-----2---|
|--------------------|--3----------------|
|--3-----------------|-------------------|
   E  E E  E E E E E    E  E E E E E E E


  +E  E H.
|-(5)-3-3------------|---2-------------|
|-----0------0-----0-|-----3---3-------|
|-------0------0-----|-------2---2---2-|
|----------0-----0---|-------------0---|
|--------------------|-----------------|
|--0-----------------|-2---------------|
   E  E E  E E E E E   E E E E E E E E


 Bridge
  E E E E E E E E   E E E E E E E E   E E E E E E E E   E E E E E E E E
|-------0-----0---|---0-----0-------|-0-------0-----0-|-2-------3-----0-|
|-1---1---1-----1-|-----1-----1-----|-1-1-------1-----|-3-3-------3-----|
|-2-2-------2-----|-2-----2-----2---|-0---0-2-----0---|-2---2-------2---|
|-2---------------|---------------2-|-2-----3---------|-0-----0---------|
|-0---------------|-0---------------|-3---------------|-----------------|
|-----------------|-----------------|-----------------|-----------------|


  E E E E E E E E E E E E E E E E   E E E E E E E E E E E E E E E E
|-0---------0-----0-------------0-|-2-----------------3-------------|
|-1-1---------1-----1-------1-----|-3-----3---------3---3-----3---3-|
|-0---0---0-----0-----0-------0---|-2---2---2-----2-------2-----2---|
|-2-----2-----------------2-------|-0-4-------4-------------4-------|
|-3---------------------3---------|-------------5-----------5-------|
|---------------------------------|---------------------------------|


 Interlude
  E E E E E E E E   +E  E E E E E E E   +E  E E E E E E E   +E  E E E E E E E
|---3-----3-----3-|-(3)-3-----3-----3-|-(3)-3-----3-----3-|-(3)-2-----3-3-3-3-|
|-----3-----3-----|-------3-----3-----|-------3-----3-----|-------3-----3-----|
|-------0-----0---|---------0-----0---|---------0-----0---|---------2-----2---|
|-----------------|-------------------|-------------------|-------------------|
|-----------------|--3----------------|-------------------|-------------------|
|-3---------------|-------------------|--0----------------|--2----------------|
  W                  W                   W                   W


 Verse
  Q   H       Q     +Q    H.             W                 H       E E E E
|-5---7-------5---|-(5)---3------------|---3-----3-----3-|-------2-3-3-3-3-|
|---3---3-------3-|-----3----3-------3-|-----3-----3-----|---3-----3---3---|
|-----4---4---4---|-------0----0---0---|-------0-----0---|-----2-----2---2-|
|-----------5-----|--------------2-----|-----------------|-----------------|
|-----------------|--3-----------------|-----------------|-----------------|
|-3---------------|--------------------|-0---------------|-2---------------|
  E E E E E E E E    E  E E  E E E E E   E E E E E E E E   E E E E E E E E


  Q   H       Q     +Q    H.             W                 H       E E E E
|-5---7-------5---|-(5)---3------------|---3-----3-----3-|---2-----3-3-3-3-|
|---3-----3-------|-----3------3-------|-----3-----3-----|-----3---3-------|
|-----0-----0---0-|-------0------0---0-|-------0-----0---|-------2---2---2-|
|-------0-----0---|----------2-----2---|-----------------|-------------0---|
|-----------------|--3-----------------|-----------------|-----------------|
|-3---------------|--------------------|-0---------------|-2---------------|
  E E E E E E E E    E  E E  E E E E E   E E E E E E E E   E E E E E E E E


  Q   H       Q     +Q    H.             W                 H       E E E E
|-5---7-------5---|-(5)---3------------|---3-----3-----3-|---2-----3-3-3-3-|
|---------3---3---|------------3---3---|-----3-----3-----|-----3---3---3---|
|-------0---0---0-|-----0----0---0-----|-------0-----0---|-------2---2-----|
|-----0-----------|-------2----------2-|-----------------|---------------0-|
|---2-------------|--3-----------------|-----------------|-----------------|
|-3---------------|--------------------|-0---------------|-2---------------|
  E E E E E E E E    E  E E  E E E E E   E E E E E E E E   E E E E


  Q   H       Q     +Q    H.             W                 H       E E E E
|-8---7-------5---|-(5)---3------------|---3-----3-----3-|---2-----8-8-8-8-|
|---3-----3-----3-|-----3------3-----3-|-----3-----3-----|-----3-----5-----|
|-----0-----0-----|-------0------0-----|-------0-----0---|-------2-----7---|
|-------0-----0---|----------2-----2---|-----------------|---------------0-|
|-----------------|--3-----------------|-----------------|---------5-------|
|-3---------------|--------------------|-0---------------|-2---------------|
  E E E E E E E E    E  E E  E E E E E   E E E E E E E E   E E E E E E E E


 Chorus
  +E  E H.             +H        E E E E
|-(8)-7-7------------|-(7)-------5-5-5-5-|
|-----3------3-----3-|-----3-----3-----3-|
|-------0------0-----|-------0-----0-----|
|----------0-----0---|---------2-----2---|
|--------------------|--3----------------|
|--3-----------------|-------------------|
   E  E E  E E E E E    E  E E E E E E E


  +E  E H.             H       E E E E
|-(5)-7-7------------|---2-----8-8-8-8-|
|-----0------0-----0-|-----3-----5-----|
|-------0------0-----|-------2-----7---|
|----------0-----0---|---------------0-|
|--------------------|---------5-------|
|--0-----------------|-2---------------|
   E  E E  E E E E E   E E E E E E E E


  +E  E H.             +H        E E E E
|-(8)-7-7------------|-(7)-------5-5-5-5-|
|-----3------3-----3-|-----3-----3-----3-|
|-------0------0-----|-------0-----0-----|
|----------0-----0---|---------2-----2---|
|--------------------|--3----------------|
|--3-----------------|-------------------|
   E  E E  E E E E E    E  E E E E E E E


  +E  E H.
|-(5)-3-3------------|---2-------------|
|-----0------0-----0-|-----3---3-------|
|-------0------0-----|-------2---2---2-|
|----------0-----0---|-------------0---|
|--------------------|-----------------|
|--0-----------------|-2---------------|
   E  E E  E E E E E   E E E E E E E E


               ~~~
   W          +W
|-^3--------|-(3)----|
|-^3--------|-(3)----|
|-^0--------|-(0)----|
|-^0--------|-(0)----|
|-^2--------|-(2)----|
|-^3--------|-(3)----|


Duration Legend
---------------
W - whole; H - half; Q - quarter; E - 8th; S - 16th; T - 32nd; X - 64th; a - acciaccatura
+ - note tied to previous; . - note dotted; .. - note double dotted
Uncapitalized letters represent notes that are staccato (1/2 duration)
Irregular groupings are notated above the duration line
Duration letters will always appear directly above the note/fret number it represents the
duration for.  Duration letters with no fret number below them represent rests.  Multi-
bar rests are notated in the form Wxn, where n is the number of bars to rest for.  Low
melody durations appear below the staff

Tablature Legend
----------------
 h   - hammer-on
 p   - pull-off
 b   - bend
 pb  - pre-bend
 r   - bend release (if no number after the r, then release immediately)
 /\  - slide into or out of (from/to "nowhere")
 s   - legato slide
 S   - shift slide
  - natural harmonic
[n]  - artificial harmonic
n(n) - tapped harmonic
 ~   - vibrato
 tr  - trill
 T   - tap
 TP  - trem. picking
 PM  - palm muting
\n/  - tremolo bar dip; n = amount to dip
 \n  - tremolo bar down
 n/  - tremolo bar up
/n\  - tremolo bar inverted dip
 =   - hold bend; also acts as connecting device for hammers/pulls
 <>  - volume swell (louder/softer)
 x   - on rhythm slash represents muted slash
 o   - on rhythm slash represents single note slash

Misc Legend
-----------
 |  - bar
||  - double bar
||o - repeat start
o|| - repeat end
*|  - double bar (ending)
 :  - bar (freetime)
 $  - Segno
 &  - Coda
Tempo markers -  = BPM(8/16=s8/s16), where s8 = swing 8ths, s16 = swing 16ths


Suggest correction
Give kudos to tab author, rate the tab!
1 2 3 4 5
comments
print report bad tab
guest
You may want to rate the tab now too:
select rating
Wanna post a correction for this tab? Suggest correction