Oops, an error
Loading. Please wait.

Say Bass Tab

version 1
version 1

Whole song

Interactive

1,506 views 1 this week
no commentswrite comment
1 2 3 4 5
please rate
add to favorites
launch autoscroll
font size
0
reset
guitar tuner
Autoscroll
slow
fast
+/-
esc
set tempo
stop
Help us to improve Ultimate-Guitar.com Take our survey!
×
Author
Difficulty
novice
Say by John Mayer
Tabbed by Ayie Visitacion

Standard Tuning

bass doesn't come in until 1:04
G|-----|-------------------------10-|
D|-----|-----------------------10---|
A|-----|---6--10-8----6--10-8-------|
E|-15\-|-6----------6---------------|


G|-------------------------10-------|
D|-----------------------10---------|3X
A|---6--10-8----6--10-8-------------|
E|-6----------6---------------------|

  Bridge
G|---------------------------------10--|
D|-------10-------------10-------10----|
A|-----10-----6-8-----10-----6-8-------|
E|-8-8-----10-----8-8-----10-----------|


G|---------------------8---------------|
D|-------10----------------------------|
A|-----10-----6-8--6------8------------|
E|-8-8-----10--------6------8\-2-------|


  starts at 2:42
G|-----|-------------------------------------|
D|-----|-------------------------------------|
A|-----|-10\-----66-6-6--6/10-10-----66-6-6--|
E|-15\-|-----6-6-----------------6-6---------|


G|---------------------|
D|---------------------|repeat till fade
A|-6/10-10-----66-6-6--|
E|---------6-6---------|

Enjoy!!!
Suggest correction
Give kudos to tab author, rate the tab!
1 2 3 4 5
comments
print report bad tab
guest
You may want to rate the tab now too:
select rating
Please do not post tabs as comments. Select "correction" instead!