Oops, an error
Loading. Please wait.

Say Tab

version 2
version 2

Whole song

Interactive

83,859 views 15 this week
3 commentsread comments
1 2 3 4 5
x 12
add to favorites
launch autoscroll
font size
0
reset
how to read this tab
guitar tuner
Autoscroll
slow
fast
+/-
esc
set tempo
stop
Help us to improve Ultimate-Guitar.com Take our survey!
×
Author
Tuning
Capo
E A D G B E
6th fret
John Mayer - Say

Capo 6 - all notes relative to capo

Part 1: Main Riff



e:--4-------5-------4-------2-|
B:--0-------0-------0-------0-|
G:--4-------4-------4-------4-|
D:--6-------7-------6-------4-|
A:----------------------------|
E:----------------------------|

Part 2: Verse (strummed)

e:--0---0--------------------0--------------|
B:--0---0--------------------0---2---5---4--|
G:--1---2--------------------1---2---4---4--|
D:--2---2---2--6---1--4--1---2---2---6---4--|
A:--2---0---4--4---2--2--2---2---0---4---2--|
E:--0------------------------0--------------|

Part 3: Chorus (strummed)

e:--0--------------|
B:--0---2---5---4--|
G:--1---2---4---4--|
D:--2---2---6---4--|
A:--2---0---4---2--|
E:--0--------------|

Part 4: Bridge

e:--------------------------------  -----------------|
B:--------------------------------  --------------4--|
G:--1h2-1h2---1(h2)---(1)--1------  ------2-------4--|
D:--2----2----2-------(4)----4----  ----2-------4----|
A:------------0--------2-------2--  --0-------2------|
E:--2----2------------------------  -----------------|

Part 5: Chorus (outro)

e:--(0)---(0)---(0)--|
B:--(0)---(0)---(0)--|
G:---1-----1-----1---|
D:---2-----2-----2---|
A:---4-----2-----0---|
E:---------0---------|


Suggest correction
comments
print report bad tab
3 comments total.
0 reply
thame2010 30 Jul 26, 2009 12:34 AM

Man I saw your video on Youtube and it's perfect! So this must be THE tab out there ;)

0 reply
guildplayer 68 Jul 30, 2009 09:06 AM

you can play this without a capo

0 reply
vampwizzard 223 Jul 31, 2009 04:06 PM

Mayer does not play this with a capo. A nice and easy arrangement though. Good job.

guest
You may want to rate the tab now too:
select rating
Wanna post a correction for this tab? Suggest correction