Oops, an error
Loading. Please wait.

Shadow Days Chords

version 1
version 1

Whole song

156,921 views 225 this week
12 commentsread comments
1 2 3 4 5
excellent!
x 45
add to favorites
launch autoscroll
font size
0
reset
transpose
0
reset
simplify chords
display chords
guitar tuner
Autoscroll
slow
fast
+/-
esc
set tempo
stop
Help us to improve Ultimate-Guitar.com Take our survey!
×
Author
-----------------------------------------------------------------------------
                             Shadow Days - John Mayer
-----------------------------------------------------------------------------
Tabbed by: Brad Mortimore

John Mayer
Shadow Days
Born and Raised

Tuning: EADGBe


[Intro]

D, C, G, Em


[Intro/Solo]

e|----------------------------------------------------------------|
B|----------------------------------------------------------------|
G|----14------------14--14/16\14--------------------------14--14--|
D|----------16--14----------------17--16\14--12----14/16----------|
A|----------------------------------------------------------------|
E|----------------------------------------------------------------|

e|-----------------------------------------------|
B|-----------------------------------------------|
G|------14------14----14/16\14-------------------|
D|--14------14------------------17--16\14--12----|
A|-----------------------------------------------|
E|-----------------------------------------------|


[Verse]

D                    C                      G                 Em
   Did you know that you could be wrong And swear you’re right
D                   C              G              Em
   Some people been known to do it all their lives
        D             C                          G              Em
But you find yourself alone just like you found yourself before

       D               C            G     Em
Like I found myself in pieces on my hotel floor
G                    Em
Hard times help me see


[Chorus]

       D/F#
I’m a good man with a good heart
      G
Had a tough time, got a rough start
      Bm                 Asus   G
But I finally learned to let it go
        D/F#
Now I’m right here, and I’m right now
        G
And I’m hoping, knowing somehow
        Bm                Asus
That my shadows days are over
G
 My shadow days are over now


[Solo]

e|------------------------------------------------|
B|------------------------------------------------|
G|----14------------14--14/16\14------------------|
D|----------16--14----------------17--16\14--12---|
A|------------------------------------------------|
E|------------------------------------------------|


[Verse]

         D                C           G              Em              
Well I’m not some trouble maker and I never meant her harm
       D              C              G             Em
But it doesn’t mean I didn’t make it hard to carry on
        D                   C              G           Em
Well it sucks to be honest (honest) and it hurts to be real
         D                 C               G       Em
But it's nice to make some love that I can finally feel
G                  Em
Hard times let me be


[Chorus]

(Solo rhythm)
D, A#maj7, Bm, E
D, G, Bm, Asus, G
D, G, Bm, Asus, G


[Electric solo]
     
e|------------------------------------------------------------------|
B|------------------------------------------------------------17----|
G|---14----------14--16/18\16-------------14--16/19\16--16/18----18-|
D|-------14--16-------------------14--16----------------------------|
A|------------------------------------------------------------------|
E|------------------------------------------------------------------|

e|------------------------------------------------------------------|
B|---19--19--19--19-19-19-19-19-19-19-19\15-------------------------|
G|------------------------------------------------------------------|
D|------------------------------------------------------------------|
A|------------------------------------------------------------------|
E|------------------------------------------------------------------|


[Acoustic Solo]

e|------------------------------------------------------------------|
B|-10/12--12\10--10--7-----------10/12--12\10--10--7----------------|
G|--7/9----9\7----7--7---9--7-----7/9----9\7----7--7--9--7--7--9--9 |
D|--7/9----9\7----7--7---9--7-----7/9----9\7----7--7--9--7--9--9--9-|
A|------------------------------------------------------------------|
E|------------------------------------------------------------------|


e|------------------------------------------------------------------|
B|------------------------------------------------------------------|
G|-7--7--7--7-------------------------------------------------------|
D|-7--7--7--7-------------------------------------------------------|
A|------------------------------------------------------------------|
E|------------------------------------------------------------------|


e|------------------------------------------------------------------|
B|-12-12-12-12\10-10-10-10p7-7-7------------------------------------|
G|--9--9--9--9\7---7--7--7---7-7--9-7-9-7-7-------------------------|
D|--9--9--9--9\7---7--7--7---7-7--9-7-9-7-7-------------------------|
A|------------------------------------------------------------------|
E|------------------------------------------------------------------|



************************************

| p  Pull-off
| /  Slide up
| \  Slide down 

************************************
Suggest correction
What's this?
You can suggest a correction to this tab. Community and Mods will review your correction and vote to approve or reject it.
comments
print report bad tab
12 comments total. Showing first comments.
0 reply
brian91145 70 wrote on March 1 2012, 04:01 pm

Fantastic job! The only thing i can see is the Em is actually an Em7. Other than that, it's perfect.

0 reply
neverchanging 73 wrote on March 1 2012, 04:16 pm

Right on! :)

0 reply
bmortimore 503 wrote on March 2 2012, 03:50 pm

Yea its Em or Em7. They're sort of interchangeable during the song

guest
You may want to rate the tab now too:
select rating
Please do not post tabs as comments. Select "correction" instead!