Oops, an error
Loading. Please wait.

Shadow Days Tab

version 1
version 1

Whole song

69,775 views 54 this week
2 commentsread comments
1 2 3 4 5
x 21
add to favorites
launch autoscroll
font size
0
reset
how to read this tab
guitar tuner
Autoscroll
slow
fast
+/-
esc
set tempo
stop
Help us to improve Ultimate-Guitar.com Take our survey!
×
Author
Difficulty
intermediate
-----------------------------------------------------
 Shadow Days - John Mayer - Born And Raised May 22nd
-----------------------------------------------------

Tabbed by: Nathan Edwards - Jerbil666
Email: nathan_swansea_till_i_die@hotmail.co.uk

Listen to the song here for strumming patterns and lyrics.
http://www.youtube.com/watch?v=6J2eB9lChPk

Tuning: Standard - EADGBE


[Intro]

Chords (x2)
   D       C       G     Em
e|------------------------------|
B|-10------8-------3------3-----|
G|-11------9-------4------0-----|
D|-12------10------5------2-----|
A|--x------x-------x------2-----|
E|-10------8-------3------0-----|


[Intro]

Lead
e|---------------------------------------------|
B|-10~----------10--10/12\10--8-------------10-|
G|----------11-------------------9b-7~--9/11---|
D|------------12-------------------------------|
A|---------------------------------------------|
E|---------------------------------------------|

e|---------------------------------------------|
B|-10~-------10~--10/12\10--8------------------|
G|-------11--------------------9b-7~-----------|
D|-----12---12---------------------------------|
A|---------------------------------------------|
E|---------------------------------------------|


[Verse]

Chords (x4)
   D       C       G     Em
e|-----------------3------3-----|
B|-10------8-------3------3-----|
G|-11------9-------0------0-----|
D|-12------10------0------2-----|
A|--x------x-------x------2-----|
E|-10------8-------3------0-----|


[Pre-Chorus]

Chords (x1)
   G      Em
e|-3------3-----|
B|-3------3-----|
G|-0------0-----|
D|-0------2-----|
A|-x------2-----|
E|-3------0-----|


[Chorus]

Chords (x2)
   D     G    Bm   A G
e|-3-----3----2------3--|
B|-2-----3----3----2-3--|
G|-3-----0----4----2-0--|
D|-0-----0----4----2-0--|
A|-------x----2----0-2--|
E|-------3-----------3--|


[Verse Intro]

Lead
   D           c          G           Em
e|---------------------------------------------|
B|-10~----------10--10/12\10--8-------------10~|
G|----------11-------------------9b-7~--9/11---|
D|------------12-------------------------------|
A|---------------------------------------------|
E|---------------------------------------------|


[Verse]

Chords (x4)
   D       C       G     Em
e|-----------------3------3-----|
B|-10------8-------3------3-----|
G|-11------9-------0------0-----|
D|-12------10------0------2-----|
A|--x------x-------x------2-----|
E|-10------8-------3------0-----|


[Pre-Chorus] 

Chords x 1
   G      Em
e|-3------3-----|
B|-3------3-----|
G|-0------0-----|
D|-0------2-----|
A|-x------2-----|
E|-3------0-----|


[Chorus]

Chords (x2)

   D     G    Bm   A G
e|-3-----3----2------3--|
B|-2-----3----3----2-3--|
G|-3-----0----4----2-0--|
D|-0-----0----4----2-0--|
A|-------x----2----0-2--|
E|-------3-----------3--|


[Solo]

Chords
   D              E
e|-3-----2----2------|
B|-2-----3----3------|
G|-3-----3----4---1--|
D|-0-----0----0---2--|
A|----------------2--|
E|----------------0--|


[Solo] 

Lead
e|--------------------------------------------|
B|-10~-------10---11/14\11-----10---12/15\12--|
G|---------11----------------11---------------|
D|-------12----------------12-----------------|
A|--------------------------------------------|
E|--------------------------------------------|

             Hold Bend whilst you strike each not as you come down
e|----10---12b14--14-14-14-14-14-13-13-13-12-12-10-----|
B|--12---12--------------------------------------------|
G|-----------------------------------------------------|
D|-----------------------------------------------------|
A|-----------------------------------------------------|
E|-----------------------------------------------------|


[Bridge]

Chords (x2)
   D     G    Bm   A G
e|-3-----3----2------3--|
B|-2-----3----3----2-3--|
G|-3-----0----4----2-0--|
D|-0-----0----4----2-0--|
A|-------x----2----0-2--|
E|-------3-----------3--|


[Bridge] 

Lead
e|--5/7-7-7-7\5--2~--------5/7-7-7-7\5--2~------|
B|--5/7-7-7-7\5--3~-5--3---5/7-7-7-7\5--3~-5--3-|
G|------------------4--2-------------------4--2-|
D|----------------------------------------------|
A|----------------------------------------------|
E|----------------------------------------------|

e|-------2-----------------|
B|-5--2--3---5-5/7\4--2~---|
G|-4--3------4-4/6\5--3~---|
D|-------------------------|
A|-------------------------|
E|-------------------------|


[Bridge]

Piano (Optional)
e|-----5--|
B|--2h3---|
G|--------| Plays till the end of the bridge and over
D|--------| the last chorus very faintly till the outro solo.
A|--------|
E|--------|


[Bridge]

Lead
e|--7-7-7\5-5-5-5\2-2------------|
B|--7-7-7\5-5-5-5\3-3-5~--3/5\3--|
G|--------------------4~--2/4\2--|
D|-------------------------------|
A|-------------------------------|
E|-------------------------------|


[Chorus]

Chords (x2)
   D     G    Bm   A G
e|-3-----3----2------3--|
B|-2-----3----3----2-3--|
G|-3-----0----4----2-0--|
D|-0-----0----4----2-0--|
A|-------x----2----0-2--|
E|-------3-----------3--|


[Outro]

Lead
e|---------------------------------------------|
B|-10~----------10--10/12\10--8-------------10-|
G|----------11-------------------9b-7~--9/11---|
D|------------12-------------------------------|
A|---------------------------------------------|
E|---------------------------------------------|

e|---------------------------------------------|
B|-10~-------10~--10/12\10--8------------------|
G|-------11--------------------9bp7\4~---------|
D|-----12---12---------------------------------|
A|---------------------------------------------|
E|---------------------------------------------|


[Outro] 

Chords
e|------------------------------|
B|-10------8-------3------3~----|
G|-11------9-------4------0~----|
D|-12------10------5------2~----|
A|--x------x-------x------2~----|
E|-10------8-------3------0~----|


************************************

| /   slide up
| \   slide down
| h   hammer-on
| p   pull-off
| ~   vibrato
| +   harmonic
| x   Mute note
| b   Bend
| pb  Pre-bend
| br  Bend release
| pbr Pre-bend release
| brb Bend release bend
Suggest correction
comments
print report bad tab
2 comments total.
+1 reply
cybergriifey30 10 Apr 28, 2012 01:41 PM

The G chord in the chorus and prechorus is actually 300032, not 300033. Otherwise great tab!

0 reply
E34Kevin 10 Oct 19, 2012 07:35 PM

The D chord on the chorus is tabbed wrong, 323, instead of 232

guest
You may want to rate the tab now too:
select rating
Wanna post a correction for this tab? Suggest correction