Oops, an error
Loading. Please wait.

Shadow Days Chords

version 2
version 2

Whole song

49,943 views 12 this week
1 commentread comment
1 2 3 4 5
accurate
x 8
add to favorites
launch autoscroll
font size
0
reset
transpose
0
reset
simplify chords
display chords
guitar tuner
Autoscroll
slow
fast
+/-
esc
set tempo
stop
Help us to improve Ultimate-Guitar.com Take our survey!
×
Contributor
Difficulty
rocfg 952
intermediate
Shadows days-John Mayer
Tabbed by Rocio
A new song that John played at Berklee. It will also be his new single.
This is exactly how John plays it with his acoustic guitar. I'm sure it's 100% accurate.

Verse:

       D         C          G        Em
e------------------------------------0/2------------|
b------10--------8----------3--------0--------------|
g------11--------9----------4--------0--------------|
d------12-------10----------5--------2--------------|
a------x---------x----------x--------2--------------|
e------10--------8----------3--------0--------------|

You can also play Am instead of C (if you think it sounds better) (5x755x)

Pre-chorus
       G             Em   
e------2-------------0/2------------|
b------3-------------0--------------|
g------0-------------0--------------|
d------0-------------2--------------|
a------x-------------2--------------|
e------3-------------0--------------|
Hard times help me see...


Chorus:
      D/F#     D/G        Bm   Asus4      G
e--------------------------2--------------2-------|
b------3--------3----------3----3---------3-------|
g------2--------2----------4----2---------0-------|
d------0--------0----------4----2---------0-------|
a------x--------x----------2----0---------x-------|
e------2--------3---------------0---------3-------|


1st Bridge:

      D/F#                Bm      E      
e---------------0/2-------2/5-----0-----------|
b------3--------3---------3-------0-----------|
g------2--------0---------4-------1-----------|
d------0--------0---------4-------2-----------|
a------x--------1---------2-------2-----------|
e------2--------------------------0-----------|

2nd Bridge (plays the same chords of the chorus)

      D/F#     D/G        Bm   Asus4      G
e--------------------------2--------------2-------|
b------3--------3----------3----3---------3-------|
g------2--------2----------4----2---------0-------|
d------0--------0----------4----2---------0-------|
a------x--------x----------2----0---------x-------|
e------2--------3---------------0---------3-------|

Acoustic solo:

e------5/7----5---------------------------------|
b------5/7----5----7-----5-----3----------------|
g------------------7-----4-----2----------------|
d-----------------------------------------------|
a-----------------------------------------------|
e-----------------------------------------------|

e------5/7----5---------------------------------|
b------5/7----5----7-----5-----3---7---5---3----|
g------------------7-----4-----2---7---4---2----|
d-----------------------------------------------|
a-----------------------------------------------|
e-----------------------------------------------|


Lyrics:
Did you know that you could be wrong
And swear you're right
Some people been know to do it
All their lives

But you find yourself alone
Just like you found yourself before
Like I found myself in pieces
On my hotel floor

Hard times help me see

I'm a good man with a good heart
Had a tough time, got a rough start
And I finally learned to let it go
Now I'm right here, and I'm right now
And I'm hoping, knowing somehow
That my shadows days are over
My shadow days are over now

Well I'm not some trouble maker
And I never meant her harm
But it doesn't mean I didn't make it
Hard to carry on

Well it sucks to be honest (honest)
And it hurts to be real
But it starts to make some love
That I can finally feel

Hard times let me be

I'm a good man with a good heart
Had a tough time, got a rough start
And I finally learned to let it go
Now I'm right here, and I'm right now
And I'm hoping, knowing somehow
That my shadows days are over
My shadow days are over now (x2)
comments
print report bad tab
1 comment total.
0 reply
jcm83 16 wrote on April 11 2012, 08:42 am

I also think it's a D/G in the chorus. Thanks for the acoustic solo :)

I want to post or [tab]
guest
You may want to rate the tab now too:
select rating
Please do not post tabs as comments. Select "correction" instead!