Oops, an error
Loading. Please wait.

Shadow Days Tab

version 2
version 2

Whole song

3,454 views 3 this week
no commentswrite comment
1 2 3 4 5
1 last vote to show rating
add to favorites
launch autoscroll
font size
0
reset
how to read this tab
guitar tuner
Autoscroll
slow
fast
+/-
esc
set tempo
stop
Help us to improve Ultimate-Guitar.com Take our survey!
×
Difficulty
novice
I was a little disappointed with the way the other tabs were so I decided to try 
and make an accurate one. Fingers crossed. This is my first tab and 
I just went off of listening to the track so cut me some slack if it's awful. :) 

The chords used are: D, C, G, Em, Bm, A

Intro
(/) Slide Up  (\) Slide Down  (h) Hammer On  (p) Pull Off  (b) Bend (r) Release (v) Vibrato

E|--------------------------------------------|
B|--10--7--10--10b12--8--------------------8--|
G|-----------------------9b10--7-----7--9-----|  
D|--------------------------------------------|        X2 (second time without 
A|--------------------------------------------|        last three notes.)
E|--------------------------------------------|

Verse
D
Did you know that you could be wrong
    C
And swear you're right
G
Some people been known to do it
Em
All their lives

D
But you find yourself alone
          C
Just like you found yourself before
     G
Like I found myself in pieces
Em
On the hotel floor

Pre-chorus
G                   Em  
Hard times, help me see

Chorus
D
I'm a good man with a good heart
G
Had a tough time, got a rough start
Bm                           A  G
But I finally learned to let it go
D
Now I'm right here, and I'm right now
G
And I'm open, knowing somehow
Bm                    A G 
That my shadow days are over
G
My shadow days are over now

Repeat the intro and it should repeat exactly like that for the next verse, chorus 
and the final chorus.

Solo

Electric Solo


E|---------------------------------------------------------12b13--13--13--13--13--13--13--10--10-10|
B|-10~-----7--10--11/14\11----7--10--12/15\12--12/15\12--------------------------------------------|
G|-----7-------------------7--------------------11/14\11-------------------------------------------|
D|-------------------------------------------------------------------------------------------------|
A|-------------------------------------------------------------------------------------------------|
E|-------------------------------------------------------------------------------------------------|

Acoustic Solo


E|--10h12--12--12--10--7--5--3----------------|
B|--10h12--12--12--10--7--5--3----------------|
G|--------------------------------------------|
D|--------------------------------------------|
A|--------------------------------------------|
E|--------------------------------------------|

E|--10h12--12--12--10--7--5--3--7--3--3--3/5\3|
B|--10h12--12--12--10--7--5--3--7--3--3--3/5\3|
G|--------------------------------------------|
D|--------------------------------------------|
A|--------------------------------------------|
E|--------------------------------------------|

*Brief instrumental break (2 measures)*

E|--12--12--12--12--10--10--7--7--5--3/5\-----|
B|--12--12--12--12--10--10--7--7--5--3/5\-----|
G|--------------------------------------------|
D|--------------------------------------------|
A|--------------------------------------------|
E|--------------------------------------------|
Suggest correction
Give kudos to tab author, rate the tab!
1 2 3 4 5
comments
print report bad tab
guest
You may want to rate the tab now too:
select rating
Wanna post a correction for this tab? Suggest correction