Oops, an error
Loading. Please wait.

Slow Dancing In A Burning Room Tab

version 1
version 1

Solo

Interactive

78,497 views 63 this week
4 commentsread comments
1 2 3 4 5
worth learning
x 17
add to favorites
launch autoscroll
font size
0
reset
how to read this tab
guitar tuner
Tab Pro tools
  • play this tab
  • loop segment
  • change instrument
  • show fretboard
  • metronome
Autoscroll
slow
fast
+/-
esc
set tempo
stop
Difficulty
novice
e---9----11/12--12---12p11----9p7-----9---7---4------------9----11/12--12---12p11----9p7------4----2---0--|
b---------------------------------------------------------------------------------------------------------|
g---------------------------------------------------------------------------------------------------------|
d---------------------------------------------------------------------------------------------------------|
a---------------------------------------------------------------------------------------------------------|
E---------------------------------------------------------------------------------------------------------|
comments
print report bad tab
4 comments total. Showing first comments.
0 reply
Sash0 wrote on July 1 2009, 04:40 am

I think this is a better way to play the intro:

e---------------------------------------------------------------------------------------------------------|
b---14--16b17r16--16b17r16--14----14~~---------14--16b17r16--16b17r16--14---------------------------------|
g------------------------------16-----16--13~~----------------------------16------------------------------|
d----------------------------------------------------------------------------16s18--16--14----------------|
a---------------------------------------------------------------------------------------------------------|
E---------------------------------------------------------------------------------------------------------|

0 reply
Ehsion wrote on July 19 2009, 08:34 am

1 liner... too short no explanation

+1 reply
PRSOne wrote on August 13 2009, 04:04 am

Second part of intro

e--12-14/15--14---(14)-12-12-12----12--------|
b--14-16/17--16b17r16--14p12-12h14-12-12-----|
g-------------------------------------11h13--|

I want to post or [tab]
guest
You may want to rate the tab now too:
select rating
Please do not post tabs as comments. Select "correction" instead!