Oops, an error
Loading. Please wait.

Slow Dancing In A Burning Room Tab

version 2
version 2
79,155 views 15 this week
5 commentsread comments
1 2 3 4 5
worth learning
x 15
add to favorites
launch autoscroll
font size
0
reset
how to read this tab
guitar tuner
Tab Pro tools
  • play this tab
  • loop segment
  • change instrument
  • show fretboard
  • metronome
×
Best way to learn
"Slow Dancing In A Burning Room"
Autoscroll
slow
fast
+/-
esc
set tempo
stop
Contributor
Difficulty
novice
---------------------------------------------------------------------------
                Slow Dancing In A Burning Room - John Mayer
---------------------------------------------------------------------------
Tabbed by: akssm9
Email: nsinz17@hotmail.com

Tuning: Standard EADGBe

e|-------------------------------------------------------------------------|
B|-------------------------------------------------------------------------|
G|-------------------------------------------------------------------------|
D|---------14-----14p13--11p9-11~-9-6---------14--14-13--11p9--------------|
A|---9/11-------------------------------9/11-------------------11---9---7--|
---------------------------------------------------------------------------|

e|--9--11/12------12p11--9p7--9---7--4----9---11/12---12p11--9p7---4---2--0|
B|-------------------------------------------------------------------------|
G|-------------------------------------------------------------------------|
D|-------------------------------------------------------------------------|
A|-------------------------------------------------------------------------|
E|-------------------------------------------------------------------------|



| /  slide up
| \  slide down
| h  hammer-on
| p  pull-off
| ~  vibrato
| +  harmonic
| x  Mute note
===========================================================================
comments
print report bad tab
5 comments total. Showing first comments.
-1 reply
justin_fraser wrote on June 30 2009, 03:40 pm

ya this seems right of whats all here, but should this not be an intro tab???

-1 reply
Sash0 wrote on July 1 2009, 04:40 am

intro:


e---------------------------------------------------------------------------------------------------------|
b---14--16b17r16--16b17r16--14----14~~---------14--16b17r16--16b17r16--14---------------------------------|
g------------------------------16-----16--13~~----------------------------16------------------------------|
d----------------------------------------------------------------------------16s18--16--14----------------|
a---------------------------------------------------------------------------------------------------------|
E---------------------------------------------------------------------------------------------------------|

+1 reply
Ehsion wrote on July 19 2009, 08:32 am

uhg how many professional guitar players play on one string. I think you guys should revamp, tabs that only involved 2 strings... like this one

I want to post or [tab]
guest
You may want to rate the tab now too:
select rating
Please do not post tabs as comments. Select "correction" instead!