Oops, an error
Loading. Please wait.

Slow Dancing In A Burning Room Tab

version 3
version 3

Solo

Interactive

278,761 views 609 this week
3 commentsread comments
1 2 3 4 5
excellent!
x 48
add to favorites
launch autoscroll
font size
0
reset
how to read this tab
guitar tuner
Tab Pro tools
  • play this tab
  • loop segment
  • change instrument
  • show fretboard
  • metronome
Autoscroll
slow
fast
+/-
esc
set tempo
stop
Contributor
Difficulty
intermediate
Slow Dancing In A Burning Room

Artist: John Mayer

Album: Continuum

tabbed by: Ryan Conley
Part 1

|------------x---------------------------------------------------------------|
|------------x------------------------5----5--5------------------------------|
|--------9---x------9\8-----6----4----4h6--4--4------------------------------|
|------------x-----11-------6----4------------6------------------------------|
|-9\11-------x---------------------------------------------------------------|
|------------x---------------------------------------------------------------|

|------------x-------------------0-------0-----------------------------------|
|--------9---x-------------------5-------5-----------------------------------|
|--------9---x---9---8---6---4---4---4---4-----------------------------------|
|--9\11------x--11---9---6---4---6---4---6-----------------------------------|
|------------x-------------------7---7---7-----------------------------------|
|------------x---------------------------------------------------------------|


Part 2

|-12--14\16--14----12-----12----12-------------------------------------------|
|-14--16\17--16br--14p12--12h14-12--12---------------------------------------|
|-----------------------------------13---------------------------------------|
|----------------------------------------------------------------------------|
|----------------------------------------------------------------------------|
|----------------------------------------------------------------------------|

|-12--14\16--14----12--------------------------------------------------------|
|-14--16\17--16br--14p12--10\12--10----9-------------------------------------|
|-------------------------11\13---9h11-9-------------------------------------|
|----------------------------------------------------------------------------|
|----------------------------------------------------------------------------|
|----------------------------------------------------------------------------|
comments
print report bad tab
3 comments total.
0 reply
TheMainSequence wrote on July 11 2009, 04:05 am

nice, well done.

0 reply
mr_sinistah wrote on July 11 2009, 10:08 am

super tab!!
love it, perfect me thinks, certainly to the ear

+7 reply
PRSOne wrote on August 13 2009, 04:05 am

Close, but not perfect. Missed the C# at the very beginning.

And missed some hammer ons

e--12-14/16--14---(14)-12-12-12----12--------|
b--14-16/17--16b17r16--14p12-12h14-12-12-----|
g-------------------------------------11h13--|

e--12-14/16--14---(14)-12-12-------------------|
b--14-16/17--16b17r16--14p12--12----12---------|
g-----------------------------11h13-11--11/13--|
d---------------------------------------13/14--|

I want to post or [tab]
guest
You may want to rate the tab now too:
select rating
Please do not post tabs as comments. Select "correction" instead!