Oops, an error
Loading. Please wait.

Slow Dancing In A Burning Room Tab

version 1
version 1

Solo

Interactive

137,271 views 102 this week
9 commentsread comments
1 2 3 4 5
x 11
add to favorites
launch autoscroll
font size
0
reset
how to read this tab
guitar tuner
Autoscroll
slow
fast
+/-
esc
set tempo
stop
Help us to improve Ultimate-Guitar.com Take our survey!
×
Author
Difficulty
novice
Alright, so John is probably the best guitarist around today and his playing on 
shows it. Here's one of his finest solos of the new album.

Standard Tuning

h=hammer on
p=pull off
^=bend to pitch
r=release
/=slide up
\=slide down
x=mute

PLAY WITH LOTS OF FEELING!!!!!!!!!!!

E|---------------------------------------------------9--12^13--9----|
B|-9h12--14^17r-------------------------------9--12---------------9-|
G|---------------13^16r--11^13r^13r--9--9---------------------------|
D|--------------------------------------9h11------------------------|
A|------------------------------------------------------------------|
e|------------------------------------------------------------------|

E|-12^13--9-------12^14--12--9----------------------------------|
B|-----------9---x--------------12p9----------------------------|
G|--------------x---------------------11^12--11p9-11^12--9--11--|
D|--------------------------------------------------------------|
A|--------------------------------------------------------------|
e|--------------------------------------------------------------|

E|----------------
B|-12/14\12/14\12-
G|-11/13\11/13\11-
D|----------------|
A|----------------|
e|----------------|
Suggest correction
comments
print report bad tab
9 comments total. Showing first comments. show 2 bad comments
+1 reply
Sash0 104 Jul 01, 2009 04:40 AM

Adding intro:


e---------------------------------------------------------------------------------------------------------|
b---14--16b17r16--16b17r16--14----14~~---------14--16b17r16--16b17r16--14---------------------------------|
g------------------------------16-----16--13~~----------------------------16------------------------------|
d----------------------------------------------------------------------------16s18--16--14----------------|
a---------------------------------------------------------------------------------------------------------|
E---------------------------------------------------------------------------------------------------------|

guest
You may want to rate the tab now too:
select rating
Wanna post a correction for this tab? Suggest correction