Oops, an error
Loading. Please wait.

Slow Dancing In A Burning Room Tab

version 5
version 5

Interactive

31,813 views 21 this week
no commentswrite comment
1 2 3 4 5
worth learning
x 4
add to favorites
launch autoscroll
font size
0
reset
how to read this tab
guitar tuner
Autoscroll
slow
fast
+/-
esc
set tempo
stop
Help us to improve Ultimate-Guitar.com Take our survey!
×
Contributor
Difficulty
sepsep 68
intermediate
SLOW DANCING IN A BURNING ROOM
Artist/Album: JOHN MAYER, The Village Sessions, (2008)
VERSION 1.02
=====================================================
Date: 19th November 2009
=====================================================
Tabbed by JOSEPH V (joseph.youtube@hotmail.com)
Video Tutorial/Youtube: http://www.youtube.com/sepsep


Tuning: Standard E


INTRO

       C#m7                                A                 E
e -------------------4-------------------------------------------|
b ------------5------5----4-h-5--4---4------0-h-2----------------|
g -------------------0----4---4--4-h-6-4----2----------2-----1---|
d -----4-h-6--~------6----------------------2-------2--------2---|
a ----------------4--x--4-------------------0----------------2---|
E --------------------------------------------------------X--0---|


VERSE

Strumming

silly little moment... storm before ...calm

C#m7		 	A 		 E

-4-                -0-         -0--|
-5-                -0-         -0--|
-6-                -2-         -1--|
-6-                -2-         -2--|
-4-                -0-         -2--|
-4-              -0-         -0----|


PRE CHORUS (strum/pluck)

(we're going doing down...		..you can see it too)

   	   	    B		           Asus2  A      E

		e --------------------------------------------------|
		b -------------------------0-h-2--------------------|
		g -8-h-9-h-8-h-9-h-8-h-9---2------2------1----------|
		d -9-------9-------9-------2-------------2----------|
		a -9-------9-------9-------0-------------2----------|
		E -7-------7-------7--------------------------------|

use thumb of E if possible...


Repeat

(we're going doing down...             ..know that we're doomed)

   	   	    B		           F#m

		e -------------------------2----|
		b -------------------------2----|
		g -8-h-9-h-8-h-9-h-8-h-9---2----|
		d -9-------9-------9-------4----|
		a -9-------9-------9-------4----|
		E -7-------7-------7-------2----|


CHORUS
(my dear we're......slow dancing.....bur-  ning room)

       C#m7                                A                 E
e -------------------4-------------------------------------------|
b ------------5------5----4-h-5--4---4------0-h-2----------------|
g -------------------0----4---4--4-h-6-4----2----------2-----1---|
d -2---4-h-6--~------6----------------------2-------2--------2---|
a ----------------4--x--4-------------------0----------------2---|
E --------------------------------------------------------X--0---|


OR ALTERNATIVE/VARIATION

         C#m                 		  A      E

e -------0---------------------------------------------------|
b -------9------------------9----0 h 2-----------------------|
g -------9---------9-----9--9----2--------2------1-----------|
d -------9---------9-h-11--------2-----2---------2-----------|
a -------0--9-h-11---------------0---------------2-----------|
E -9--9--9------------------------------------x--0-----------|
comments
print report bad tab
I want to post or [tab]
guest
You may want to rate the tab now too:
select rating
Please do not post tabs as comments. Select "correction" instead!