Oops, an error
Loading. Please wait.
We have an official Slow Dancing In A Burning Room tab made by UG professional guitarists. Check out the tab »
×
68,141 views 90 this week
no commentswrite comment
1 2 3 4 5
x 6
add to favorites
launch autoscroll
font size
0
reset
how to read this tab
guitar tuner
backing track
0:00
0:00
Autoscroll
slow
fast
+/-
esc
set tempo
stop
Difficulty
intermediate
This is a transcription from the very popular YouTube clip of John Mayer's 
new signature Two Rock amp, which he is demoing in the Two Rock shop. 

Since there was no tab for it, I thought I'd create it. This is as close as 
I could get. The groove is always a bit stale in actual sheet music, 
so I encourage you to get the actual groove and feel from the clip.

Have fun!


                      SLOW DANCING IN A BURNING ROOM TWO ROCK VERSION(Live)
                            As recorded by John Mayer

Words and Music by John Mayer
Arranged by John Mayer
Transcribed by Joost Assink

Gtr I (E A D G B E) - 'Untitled'

  Q=60
                   C#m                     A     E
 4/4
          Gtr I
             ~~~~       PM                  ~~            ~~~~
  H.      a  E E   +Q   Q    E  E  E E   a  Q  E Q.    a  E E
e|----------------|---------------------|-----------------------|
B|----------------|---------------------|---^5--5-5-------------|
G|--------------9-|-(9)--x---/9-\8------|-4h^6--4-4----------9--|
D|----------------|---------/11-\9-11-9-|---^4--4-6-----9s11----|
A|---------9s11---|------x---------11-9-|---^0--x-7-------------|
E|----------------|--9---x----------x---|------------0----------|
                    Q   Q    Q     Q        Q  E E  H


   C#m                     A          E
                           ~~~
   +Q   Q    E  E  E E   a E  a S S E E +Q    a  S  S  S  S
e|---------------------|------------------------------------|
B|---------------------|---5----5---5-5-(5)-----12----------|
G|-(9)--x---/9-\8------|-4h6----4---4-4-(4)--11h13-11-------|
D|------x--/11-\9-11-9-|---4--6p4---4-6-(6)-----------14p11-|
A|----------------11-9-|---0------7-x-7-(7)-----------------|
E|--9---x----------x---|--------------0-(0)-----------------|
   Q   Q    Q     Q       E.     S E E +Q       Q


     C#m                                     A       E
      ~~~        ~~~
      Q     E    E   S  S   S S   S S  S S   E  E  E E +Q     S  S   S S
e|-----------------------------------------|-----------------------------|
B|-------------/14-----12------------------|-------5-5-(5)------12-------|
G|----9-----9------/13----\11p9------------|-------6-4-(4)--/13----\11p9-|
D|-9h11----11-----------------------9------|----7--x-6-(6)---------------|
A|----x-----x-------------------/11---\9p7-|-0-(0)-x-7-(7)---------------|
E|----9--x-(x)-----------------------------|------------0----------------|
  a  E. S +Q        H                       H          Q     Q


   C#m                                    A      E
    Q    E E   a  S  S a  S S a  E  S S    E E E E +Q   E  S      S
e|--------------------------------------|---------------------------|
B|-------9-----9-------9----------------|------5-5-(5)--x-----------|
G|-------9-----9h11p=9-9h11p9-9---------|------6-4-(4)--x-11pb13r11-|
D|-11----x--------------------9h11------|------7-6-(6)--x-----------|
A|---------------------------------\9-7-|----0-x-7-(7)--x-----------|
E|--9--9-x---9---(9)--------------------|-/5-----0-(0)--------------|
   E. S E S S   +H                        W


   C#m
                    ~
    a      S S S  S E  S  S   S S  S E   S S  S
e|----------------------------------------------|
B|----------------------------------------------|
G|-11pb13r11-9-9----9-11s13-----9----x-----9----|
D|---------------11-------------9h11-x-/11---11-|
A|--------------------------/11-----------------|
E|---------9------------------------------------|
          H                  H


   A        E
   E  E   E E E  a  S  S  a  S  a  S T  T T  T
e|-----------------12-12-----------------------|
B|-5--7--/9-5---12h14-12----12-----------------|
G|-6-(6)----4------------11h13-12p11-9---------|
D|-7-(7)----6--------------------------11-9----|
A|-0--------7-------------------------------11-|
E|------------0--------------------------------|
  H          H


   C#m                            A          E
          ~~
   Q   E  E   S S  S S  S S S S    E E S +S  E +H
e|-------12---x-----------------|---------------------*|
B|-----9------x-----------------|------5-(x)-5-(5)----*|
G|-----9----\11p9---------------|------6-(x)-4-(4)----*|
D|----11------------------------|------x-(x)-6-(6)----*|
A|-----x----------\9-7----------|----0-x-(x)-7-(7)----*|
E|-9---x---------------\7p5S3p0-|-/5---------0-(0)----*|
  Q   Q      H


Duration Legend
---------------
W - whole; H - half; Q - quarter; E - 8th; S - 16th; T - 32nd; X - 64th; a - acciaccatura
+ - note tied to previous; . - note dotted; .. - note double dotted
Uncapitalized letters represent notes that are staccato (1/2 duration)
Irregular groupings are notated above the duration line
Duration letters will always appear directly above the note/fret number it represents the
duration for.  Duration letters with no fret number below them represent rests.  Multi-
bar rests are notated in the form Wxn, where n is the number of bars to rest for.  Low
melody durations appear below the staff


Misc Legend
-----------
 |  - bar
||  - double bar
||o - repeat start
o|| - repeat end
*|  - double bar (ending)
 :  - bar (freetime)
 $  - Segno
 &  - Coda
Tempo markers -  = BPM(8/16=s8/s16), where s8 = swing 8ths, s16 = swing 16ths


************************************

| x    Dead note
| (n)  Ghost note
| /    Slide up
| \    Slide down
| h    Hammer-on
| p    Pull-off
| ~    Vibrato
| r    Release
| pb   Pre-bend

************************************
Suggest correction
comments
print report bad tab
guest
You may want to rate the tab now too:
select rating
Wanna post a correction for this tab? Suggest correction