Oops, an error
Loading. Please wait.
We have an official Slow Dancing In A Burning Room tab made by UG professional guitarists. Check out the tab »
×

Slow Dancing In A Burning Room Live tab

version 8
version 8

Whole song

Interactive

2,566 views 315 this week
no commentswrite comment
1 2 3 4 5
2 more votes to show rating
add to favorites
×
Save as Personal and add changes to this tab that will be seen only by you. Learn more ›
×
You can save this tab as Personal to edit and correct it or add notes. All changes will be seen only by you. Learn more »
launch autoscroll
font size
0
reset
how to read this tab
guitar tuner
backing track
0:00
0:00
edit
Autoscroll
slow
fast
+/-
esc
set tempo
stop
About this tab version
John Mayer's Slow Dancing In A Burning Room live version. Was this info helpful? Yes No
Slow Dancing In A Burning Room
John Mayer
No capo
standard tuning


[Intro]                                               
e|------------x---------------------|------------------------------|
B|------------x---------------------|-----------------4h5--4--5----|
G|------9-----------8/9\8-----------|-----------------4h6--4--4----|
D|----------------------------------|--11--9----------4----4--6----|
A|--9/11------------9/11\9----------|--11--9-----------------------|
E|---------9------------------------|---------------------------0--|

e|------------x---------------------|-------------------|
B|------------x---------------------|-------------------|
G|-------9----------8/9\8-----------|---------------5---|
D|--5/11----------------------------|--4h6p4-----5--4---|
A|---------------------------11--9--|---------7-----6---|
E|---------9--------9/11\9---11--9--|-----------------0-|

[Verse] x4 
*C#m*
It's not a silly little moment...
   D  D    udu dD
e|------------------|
B|------9-----------|
G|------9-----------|
D|----11------------|
A|------------------|
E|--9---------------|
   DDuduU
e|------------------|
B|------9------9----|
G|------9------9----| optional variation lick/riff
D|----11--9h11------|
A|------------------|
E|--9---------------|
   D DD  D
e|--------------|
B|--------------|
G|--------------|optional variation lick/riff
D|--9------9----|
A|--9-9h11-9----|
E|--------------|

*A*
It's not the storm before the calm..
D UxU
e|------------------|
B|---5--------------|
G|---6--------------|
D|---7--------------|
A|------------------|
E|-5----------------|
   DD  U D
e|------------------|
B|---5-2-5----------|
G|---6--------------|optional variation lick/riff
D|---7--------------|
A|------------------|
E|-5----------------|

*E*
   D   D
e|--------x---------|
B|--5-----x---------|
G|--3-----x---------|
D|--6-----x---------|
A|--------x---------|
E|-----0--x---------|

[Pre-Chorus]
We're goin' down...

*B*
     dduDDU Ddu  D
e|-------------------|
B|----7-----7h9-9p7--|
G|----8--------------|
D|----9--------------|
A|----x--------------|
E|--7----------------|

*C#m*
    D   udu 
e|------------------|
B|------9-----------|
G|------9-----------|
D|----11------------|
A|------------------|
E|--9---------------|

*A*
    D*  D
e|------------------|
B|---5--5/7---------|
G|---6--6/8---------|
D|---7--7/9---------|
A|------------------|
E|-5----------------|

*B* (Optional variation)
     dduDDU D    D   D   D  D    
e|------------------------------|
B|----7-----7h9-7h9-7h9-7h9--7--|
G|----8----------------------8--|
D|----9----------------------9--|
A|----x-------------------------|
E|--7---------------------------|

*C#m*
    D   D 
e|------------------|
B|------9-----------|
G|------9-----------|
D|----11------------|
A|------------------|
E|--9---------------|


*F#m*
     D*
e|----3--------------|
B|----3--------------|
G|----3--------------|
D|----4--------------|
A|-------------------|
E|--2----------------|

[Chorus]
*C#m*
   DDuduU
e|------------------|
B|------9------9----|
G|------9------9----|
D|----11--9h11------|
A|------------------|
E|--9---------------|

*A*
D UxU
e|------------------|
B|---5--------------|
G|---6--------------|
D|---7--------------|
A|------------------|
E|-5----------------|

*E*
   D*   
e|-----------------|
B|--5--------------|
G|--3--------------|
D|--6--------------|
A|-----------------|
E|-----------------|

[Interlude] 
e|------------x---------------------|------------------------------|
B|------------x---------------------|-----------------4h5--4--5----|
G|------9-----------8/9\8-----------|-----------------4h6--4--4----|
D|----------------------------------|--11--9----------4----4--6----|
A|--9/11------------9/11\9----------|--11--9-----------------------|
E|---------9------------------------|---------------------------0--|

e|------------x---------------------|-------------------|
B|------------x---------------------|-------------------|
G|-------9----------8/9\8-----------|---------------5---|
D|--5/11----------------------------|--4h6p4-----5--4---|
A|---------------------------11--9--|---------7-----6---|
E|---------9--------9/11\9---11--9--|-----------------0-|

[Bridge] 
Go cry about it, why don't you...
    DDUD         DDUD      DUDu        DDd
    *F#m*       *C#m*     *B*        *A*
e|----0---------0----------------------------|
B|----0---------0----------7----------5------|
G|----3---------9----------8----------6------|
D|----4---------11---------9----------7------| 4x
A|-------------------------------------------|
E|--2----------------------------------------| 

            
            
Suggest correction
Creating personal tab
Creating personal tab
You can edit any tab online and save it as your Personal.

You can edit, replace or remove any tab part or add personal notes – all changes will be seen only by you.

Personal tabs can be accessed anytime from any device, even offline.
Learn more »
Give kudos to tab author, rate the tab!
1 2 3 4 5
comments
print report bad tab
guest
You may want to rate the tab now too:
select rating
Wanna post a correction for this tab? Suggest correction