Oops, an error
Loading. Please wait.

Something Like Olivia Tab

version 1
version 1

Whole song

Interactive

115,321 views 33 this week
no commentswrite comment
1 2 3 4 5
accurate
x 5
add to favorites
launch autoscroll
font size
0
reset
how to read this tab
guitar tuner
Autoscroll
slow
fast
+/-
esc
set tempo
stop
Help us to improve Ultimate-Guitar.com Take our survey!
×
Author
Difficulty
intermediate
Tabbed by Rocio

Hi JM fans! Here's the tab of Something like Olivia. Check the chords and watch 
John playing it live :http://www.youtube.com/watch?v=nwO2b5j7BVo
It's an easy song, so just pay attention to the rhythm :D

Verse 1,2,3 (also when he sings "Something like Olivia" 4 times)
         G         C/E        
e------------------x---------------------|
b--------3---------5---------------------|
g--------4/5-------5---------------------|
d--------5---------5---------------------|
a--------x---------5/7-------------------|
e--------3-------------------------------|

Chorus

        D/F#        C/E          G
e--------x-----------x---------------------|
b--------7-----------5-----------3---------|
g--------7-----------5-----------4/5-------|
d--------7-----------5-----------5---------|
a--------7/9---------5/7---------x---------|
e--------------------------------3---------|


Outro:

        D/F#        C/E          
e--------x-----------x------------|
b--------7-----------5------------|
g--------7-----------5------------| x2 then G
d--------7-----------5------------|
a--------7/9---------5/7----------|
e---------------------------------|

I keep thinkin'...

Lyrics:

Well, Olivia is taken
But a look like hers
Can be found from time to time
Yeah, Oliva is taken
But a look like hers
Can be found from time to time

I'm thinkin something like Olivia 
Is what I need to find

There's only one man in this world
Who gets to sleep with her by his side
There's only one man in this world
Who gets to sleep with her by his side

I'm thinkin' something like Olivia 
Could keep me through the night

Something like Olivia (x4)

I keep thinkin' 
Something like Olivia
Is what I need to find

Now, I'm not trying to steal
No lover away from no one else
No, I'm not trying to steal
No lover away from no one else

If Olivia herself were at my door
I'd have to say
I'd let her in

Something like Olivia (x4)

I keep thinkin'
Something like Olivia 
Is what I need
Something like Olivia 
Is what I need
Something like Olivia 
Is what I need to find
Suggest correction
comments
print report bad tab
guest
You may want to rate the tab now too:
select rating
Please do not post tabs as comments. Select "correction" instead!