Oops, an error
Loading. Please wait.

St Patricks Day Tab

version 2
version 2

Whole song

Interactive

19,246 views 57 this week
5 commentsread comments
1 2 3 4 5
accurate
x 12
add to favorites
launch autoscroll
font size
0
reset
how to read this tab
guitar tuner
Tab Pro tools
  • play this tab
  • loop segment
  • change instrument
  • show fretboard
  • metronome
×
Best way to learn
"St Patricks Day"
Autoscroll
slow
fast
+/-
esc
set tempo
stop
Contributor
-----------------------------------------------------------------
St. Patrick's Day - John Mayer
-----------------------------------------------------------------
Tabbed by: Swish        
Email: himmelsuchen@aol.com

Tuning: Standard Tuning (EADGBe)

Intro:

e|----------------------|
B|---7--7--7--7--7--7---|
G|---8--8--8--8--8--8---|
D|---6--6--6--6--6--6---|
A|---x--x--x--x--x--x---|
E|---0--0--0--0--0--0---|

Verse:

e|--------------------------7---7-------5---|
B|---7---7---7------5---5---5---5---5---5---|
G|---8---8---9------7---6---6---5---4---4---|
D|---6---6---9------6---6---6---5---4---4---|
A|---x---x---x------x---x---x---x---x---x---|
E|---0---8---9------6---5---5---5---4---3---|
         T   T      T   T   T   T   T   T     *play notes w/ thumb

Pre-chorus:

e|-----------------------|
B|---3---5---2---2---0---|
G|---4---6---2---2---2---|
D|---2---6---0---0---0---|
A|---x---x---x---x---x---|
E|---4---5---2---3---3---|
         T   T   T   T

1st Chorus:             
                  The (slide) chords are quick slashes when he returns to the theme.
                              (slide)                        (slide)    
e|---0----0-----------------------------9---------7-------0-------0-------|
B|---10---9----12---10---9----9---------10---9----8---7---0---5---0---7---|
G|---11---11---11---11---10---11---13---9----9----7---7---2---4---2---8---|
D|---9----9----9----9----9----9----11---11---9----9---7---2---4---2---6---|
A|---x----x----x----x----x----x----x----9----11---7---9---0---x---x---x---|
E|---0----0----11---10---9----11---13-------------------------4---2---0---|
               T    T    T    T    T                          T   T

Verse.
2nd Chorus:
                              (slide)                            
e|---0----0-----------------------------9---------7-------0---|
B|---10---9----12---10---9----9---------10---9----8---7---0---|
G|---11---11---11---11---10---11---13---9----9----7---7---2---|
D|---9----9----9----9----9----9----11---11---9----9---7---2---| (x2)
A|---x----x----x----x----x----x----x----9----11---7---9---0---| 
E|---0----0----11---10---9----11---13-------------------------|
               T    T    T    T    T                         
"...and we'll both be..."
e|---9---------0---0-------|
B|---10---9----0---0---7---|
G|---9----9----6---8---8---|
D|---11---9----7---7---6---|
A|---9----11---x---x---x---|
E|-------------5---7---0---|
               T   T
Bridge:

e|---7---5-----------7---5-------|
B|---5---5---3---3---5---5---3---|
G|---5---5---4---4---5---5---4---|
D|---5---4---4---2---5---4---4---|
A|---x---5---x---x---x---5---x---|
E|---5-------3---4---5-------3---|

"Everybody......"
e|---------------5-----------------|
B|---3---2---1---3---3---8----8----|
G|---4---3---2---0---6---7----11---|
D|---4---3---2---4---5---10---10---|
A|---x---x---x---x---x---x----x----|
E|---3---2---1---0---5---8----10---|

Chorus.
Outro:
"And if always..."
e|---9---------0---0---9---------0---0---9---------0---0---0---|
B|---10---9----0---0---10---9----0---0---10---9----0---0---7---|
G|---9----9----6---8---9----9----6---8---9----9----6---8---8---|
D|---11---9----7---7---11---9----7---7---11---9----7---7---6---|
A|---9----11---x---x---9----11---x---x---9----11---x---x---x---|
E|-------------5---7-------------5---7-------------5---7---0---|

e|---0---0---0---0---0---0---|
B|---0---0---7---0---0---7---|
G|---6---8---8---6---8---8---|
D|---7---7---6---7---7---6---|
A|---x---x---x---x---x---x---|
E|---5---7---0---5---7---0---|

| / slide up
| \ slide down
| h hammer-on
| p pull-off
| ~ vibrato
| + harmonic
| x Mute note
comments
print report bad tab
5 comments total. Showing first comments.
0 reply
Sarah Leigh wrote on July 4 2009, 03:30 am

close, some parts are missing, like in your chorus and some i don't agree with, like the "everybody.." part doesn't sound right. But overall, it's pretty good.

0 reply
chunkyllama16 wrote on July 22 2009, 11:58 am

holy shit! this is hard.

0 reply
Ibeatonthebrat wrote on August 15 2009, 02:44 pm

great!

I want to post or [tab]
guest
You may want to rate the tab now too:
select rating
Please do not post tabs as comments. Select "correction" instead!