Oops, an error
Loading. Please wait.

Still Feel Like Your Man chords

version 1
version 1

Whole song

  • Includes chords and piano intro. Lead parts coming.
  • These chords are charted as close to the original ... Show more
  • Still feel like your man by John Mayer. This versi... Show more
  • Includes as precise voicings of each chord as possible.
53,089 views 1,278 this week
5 commentsread comments
1 2 3 4 5
x 30
add to favorites
×
Save as Personal and add changes to this tab that will be seen only by you. Learn more ›
×
You can save this tab as Personal to edit and correct it or add notes. All changes will be seen only by you. Learn more »
launch autoscroll
font size
0
reset
transpose
0
reset
simplify chords
display chords
guitar tuner
edit
Autoscroll
slow
fast
+/-
esc
set tempo
stop
About this tab version
Includes chords and piano intro. Lead parts coming.
Strumming
There is no strumming pattern for this song yet. and get +5 IQ
John Mayer
"Still Feel Like Your Man"

Standard Tuning. Corrections welcome!

  GM7   A     DM7   A7sus4 Em7   A7   F#7    Bm    Bb6   F6    DM7
e|2-----5------------------------------------7-----------------5-----|
B|3-----5----------(5)-----------5-----7-----7-----6-----1-----7-----|
G|4-----6-----6-----7------7-----6-----9-----7-----7-----2-----6-----|
D|5-----7-----4-----5------5-----5-----8-----9-----5-----0-----7-----|
A|x-----0-----5-----7------7-----x-----9-----x-----x-----x-----5-----|
E|3----------(5)---(5)-----------5-----------7-----6-----1-----------|
             Bass plays bottom                                *chorus 
             notes on recording                                fingering
[Intro]
 
  Piano
e|---0-2-0-0----------------|-0-2-0-0---------------|---3-0-2-0-0-------|--------|
B|--3--------3-3------------|3--------3-3---2-2-----|--3----------3-----|5-------|
G|-4-------------4-0-2------|4------------4---4-----|-4-------------4---|6-------|
D|5-------------------------|5------------------4---|5----------------5-|7-------|
A|--------------------------|-----------------------|-------------------|--------|
E|3-------------------------|3----------------------|3------------------|5-------|

[Intro]
GM7
I still feel like your man (Ohhh oh oh)
GM7
I still feel like your man (Eww ew ew)
GM7
I still feel (I still feel) 
A
I still feel like your man

DM7 A7sus4
DM7 A7sus4

[Verse]

Unison Riff
e|----------------------------------------||
B|----------------------------------------||
G|----------------------------------------||
D|----------------------------------------||
A|--------------------------5---7p5-------||
E|-5----5-5-5---5-----0-5-7---5-----7p5-5-||

DM7                                      A7sus4
The prettiest girl in the room she wants me
                   DM7        A7sus4 
I know because she told me so
DM7               A7sus4 
She says come over I'd like to get to know you
      DM7                    A7sus4 
But I just don't think I can

e|-------------------------------------|---------------------------|
B|-------------------------------------|---------------------------|
G|-------------------------------------|---------------------------|
D|-------------------------------------|---------------------------|
A|--------------------------5---7p5----|-5-5--------5-7-----5-7----|
E|-5----5-5-5---5-----0-5-7---5--------|--------0-7-----5-7--------|

[Chorus]
         Em7                     A7sus4 A7
'Cause I still feel like your man
DM7                     F#7        
Still feel like your man
Em7                       A7sus4 A7
I still feel like your man
F#7
Still feel like your man
Bm      A
I still feel like your man

[Break]
  DM7                    A7sus4                 DM7            A7sus4
e|-17p14------------------------------------------14------------------------------------------|
B|---------17p14-------------------------------------17---------------------------------------|
G|-----------------16p14-----------------------16---------------------------------------------|
D|-------------------------16p14---------14-17---------------------------16-14----------------|
A|--------------------------------------------------------------------14----------17-14-------|
E|--------------------------------------------------------------15-17-------------------17-15-|

Unison Riff 2
e|----------------------------------------|-----------------------------------------|
B|----------------------------------------|-----------------------------------------|
G|----------------------------------------|-----------------------------------------|
D|----------------------------------------|-----------------------------------------|
A|--------------------------5---7p5-------|--------------------------5-9-5-7-5------|
E|-5----5-5-5---5-----0-5-7---5-----7p5-5-|-5----5-5-5---5-----0-5-7-----------7-5--|

[Verse]
DM7                             A7sus4  
I still keep your shampoo in my shower
            DM7                  A7sus4 
In case you wanna wash your hair
DM7                                         A7sus4 
And I know that you probably found yourself someone somewhere
DM7                       A7sus4 
But I do not really care 'cause as long as it is there

[Chorus]
         Em7                     A7sus4 A7
'Cause I still feel like your man
DM7                     F#7        
Still feel like your man
  Em7                     Asus4 A7
I still feel like your man
F#7
Still feel like your man
Bm      A
I still feel like your man

[Bridge]
     Bb6
Your man... (Ever since the day we met)
F6                                               Bb6
Still like the letters in your name and how they feel, babe
F6                                       Bb6
Still think I'm never gonna find another you
F6                                          A
Still like to leave the party early and go home, babe
A
And don't you know, babe
A
I'd rather sit here on my own and be alone, babe

[Chorus]
         Em7                      Asus4 A7
'Cause I still feel like your man
DM7                     F#7        
Still feel like your man
  Em7                     Asus4 A7
I still feel like your man
F#7
Still feel like your man
  Em7                     Asus4 A7
I still feel like your man
DM7                     F#7
Still feel like your man
  Em7                     Asus4 A7
I still feel like your man
F#7
Still feel like your man

[Outro]
DM7               A7sus4 
I still feel like
DM7               A7sus4 
I still feel like
DM7               A7sus4 
I still feel like
DM7                       A7sus4     
I still feel, I still feel

DM7 A7sus4 
DM7 A7sus4 
DM7 A7sus4 
DM7 A7sus4
Suggest correction
Creating personal tab
Creating personal tab
You can edit any tab online and save it as your Personal.

You can edit, replace or remove any tab part or add personal notes – all changes will be seen only by you.

Personal tabs can be accessed anytime from any device, even offline.
Learn more »
comments
print report bad tab
5 comments total. Showing first comments.
+1 reply
IsakSpett 10 Feb 24, 2017 03:44 AM

damn, that was quick. Thanks alot!

-1 reply
mitchkrosch 10 May 14, 2017 03:15 AM

F#m7 seems to work ok

0 reply
nicosun5 42 Jun 17, 2017 12:55 PM

For the second verse, did you mean A6 or A7?

guest
You may want to rate the tab now too:
select rating
Wanna post a correction for this tab? Suggest correction