Oops, an error
Loading. Please wait.

Still Feel Like Your Man tab

version 1
version 1

Whole song

  • I tabbed out the basic chords, not all the little ... Show more
  • This is a version based off a YouTube video and me... Show more
  • First performed by John as an Instagram Live Acous... Show more
20,611 views 360 this week
1 commentread comment
1 2 3 4 5
x 15
add to favorites
×
Save as Personal and add changes to this tab that will be seen only by you. Learn more ›
×
You can save this tab as Personal to edit and correct it or add notes. All changes will be seen only by you. Learn more »
launch autoscroll
font size
0
reset
how to read this tab
guitar tuner
edit
Autoscroll
slow
fast
+/-
esc
set tempo
stop
Author
Difficulty
About this tab version
I tabbed out the basic chords, not all the little licks and tricks he plays. I leave those to more talented tab guys. :). Was this info helpful? Yes No
John Mayer - Still Feel Like Your Man

tabbed by Axel Haumann (asehauDLM)

His Instagram Live performance on 25th Feb. 2017, the studio recording and his performance on 
Ellen have been used as reference. 

https://www.youtube.com/watch?v=Ino1SCvSYps
https://www.youtube.com/watch?v=WNzaOl1eAkA
----------------------------------------------------------------------------------------------------

[Piano/Guitar Intro]
e|------------------------|
B|--5---7---7---5---5-----|
G|--7---6---9---7---7-----|
D|--5---7---8---5---5-----|
A|--7---5---9---7---7-----|
E|--5-----------0---5-----|

[Guitar Intro and Verses]
e|--------------------------------------------|
B|--(0)------------(0)------------------------|
G|---6--------------7-------------------------|
D|---4--------------5-------------------------|
A|---5--------------7-----------5---7-5-------|
E|---5---5--5-5-----5-----0-5-7---7-----7-5---|


[Chorus]
e|----------------(5)--------|   instead of |---| you can also play |---| 
B|------(5)-(5)----7-----7---|              |-7-|                   |-2-|
G|--7----7---6-----6-----9---|              |-9-|                   |-3-|
D|--5----5---5-----7-----8---|              |-8-|                   |-2-|
A|--7----x---x-----5-----9---|              |-9-|                   |-x-|
E|-------5---5---------------|              |---|                   |-2-|

e|-------------------------------|
B|------(5)-(5)----7-----7---5---|
G|--7----7---6-----9-----7---6---|
D|--5----5---5-----8-----9---7---|
A|--7----x---x-----9-----x---x---|
E|-------5---5-----------7---5---|

[Bridge]
e|-------------------------------|
B|--6----1------------6-----5----|
G|--7----2------------7-----6----|
D|--5----0----[3x]----5-----7----|
A|--x----x------------x-----x----|
E|--6----1------------6-----5----|

[Outro]
e|--------------------------------------------|
B|--(0)------------(0)------------------------|
G|---6--------------7-------------------------|
D|---4--------------5-------------------------|
A|---5--------------7-----------5---7-5-------|
E|---5---5--5-5-----5-----0-5-7---7-----7-5---|


[Playing order]

- Piano Intro
- Guitar Intro and Verses [6x]
- Chorus
- Guitar Intro and Verses [6x]
- Chorus
- Bridge
- Chorus [2x]
- Outro

            
            
Suggest correction
Creating personal tab
Creating personal tab
You can edit any tab online and save it as your Personal.

You can edit, replace or remove any tab part or add personal notes – all changes will be seen only by you.

Personal tabs can be accessed anytime from any device, even offline.
Learn more »
comments
print report bad tab
1 comment total.
0 reply
adenbranson 10 Apr 22, 2017 01:44 PM

it's not detecting this song from my library

guest
You may want to rate the tab now too:
select rating
Wanna post a correction for this tab? Suggest correction