Oops, an error
Loading. Please wait.

Still Feel Like Your Man Acoustic tab

version 2
version 2

Whole song

  • I tabbed out the basic chords, not all the little ... Show more
  • This is a version based off a YouTube video and me... Show more
  • First performed by John as an Instagram Live Acous... Show more
1,861 views 81 this week
no commentswrite comment
1 2 3 4 5
x 3
add to favorites
×
Save as Personal and add changes to this tab that will be seen only by you. Learn more ›
×
You can save this tab as Personal to edit and correct it or add notes. All changes will be seen only by you. Learn more »
launch autoscroll
font size
0
reset
how to read this tab
guitar tuner
edit
Autoscroll
slow
fast
+/-
esc
set tempo
stop
About this tab version
This is a version based off a YouTube video and meant to be played with an acoustic guitar and thumb slapping to add a percussive effect. Was this info helpful? Yes No
-------------------------------------------------------------------------------
Still Feel Like Your Man (Acoustic) – John Mayer 
-------------------------------------------------------------------------------
Tabbed by: WolfbainFox
Email: thomasgreene101@yahoo.com
Based off youtube video:(https://www.youtube.com/watch?v=tcsJiBLF3As)

Tuning: EADGBE (Standard)
X – Thumb Slab


[Intro]
           P.M.---       P.M.-----------      P.M.---       P.M.-----------
e|----------------------------------------------------------------------------|
B|----------------------------------------------------------------------------|
G|---6-------------7--------------------6-------------7-----------------------|x2
D|---4-------------5--------------------4-------------5-----------------------|
A|---5-------------7---------5---7-5----5-------------7---------5---7-5-------|
E|---5--x--5-5-5-x-5---x-5h7---7-----7--5--x--5-5-5-x-5---x-5h7---------7-----|


[Verse 1]
           P.M.---       P.M.-----------      P.M.---       P.M.-----------
e|----------------------------------------------------------------------------|
B|----------------------------------------------------------------------------|
G|---6-------------7--------------------6-------------7-----------------------|
D|---4-------------5--------------------4-------------5-----------------------|
A|---5-------------7---------5---7-5----5-------------7---------5---7-5-------|
E|---5--x--5-5-5-x-5---x-5h7---7-----7--5--x--5-5-5-x-5---x-5h7---------7-----|

           P.M.---       P.M.-----------      P.M.---
e|----------------------------------------------------------------------------|
B|------------------------------------------------------------------5\--------|
G|---6-------------7--------------------6-------------7--------7----7\--------|
D|---4-------------5--------------------4-------------5------5------5\--------|
A|---5-------------7---------5---7-5----5-------------7----7------7-----------|
E|---5--x--5-5-5-x-5---x-5h7---7-----7--5--x--5-5-5-x-5--5---x----------------|


[Chorus 1]
e|----------------------------------------------------------------------------|
B|------7----7---7----3--------3----3-3---3-----7---7-----3-------3-3---------|
G|------7----7---7----4------4------4-4-4-------6---6-----3-------3-3---------|
D|------5----5---5----5----5--------5-5---------7---7-----2-------2-2---------|
A|-------------------------------------------5----x-----x---------------------|
E|---x--0--x---0----x-5--5---x----5-----x-----------------2---x-2-----x-------|

e|----------------------------------------------------------------------------|
B|------7----7---7----3--------3----3-3---3---3-3---3------7---7--5-----------|
G|------7----7---7----4------4------4-4-4-----3-3---3------7---7--6-----------|
D|------5----5---5----5----5--------5-5-------2-2---2------7---7--7-----------|
A|----------------------------------------------------------------0-----------|
E|---x--0--x---0----x-5--5---x----5-----x-----2-2-x-2---x----x-------x--------|

[Instrumental]
           P.M.---       P.M.-----------      P.M.---       P.M.-----------
e|----------------------------------------------------------------------------|
B|----------------------------------------------------------------------------|
G|---6-------------7--------------------6-------------7-----------------------|x2
D|---4-------------5--------------------4-------------5-----------------------|
A|---5-------------7---------5---7-5----5-------------7---------5---7-5-------|
E|---5--x--5-5-5-x-5---x-5h7---7-----7--5--x--5-5-5-x-5---x-5h7---------7-----|


[Verse 2]
           P.M.---       P.M.-----------      P.M.-------------------------------------
e|---------------------------------------------------------------------------------------|
B|----------------------------------------------------3---3-5p3-5------------------------|
G|---6-------------7--------------------6-------------4---4-4-4-4-----4---4-6p4-6-----6--|
D|---4-------------5--------------------4-------------5---5-5-5-5-----5---5-5-5-4-----4--|
A|---5-------------7---------5---7-5----5-----------0---0---------x-0---0---------x-0----|
E|---5--x--5-5-5-x-5---x-5h7---7-----7--5--x--5-5-5--------------------------------------|

           P.M.---       P.M.----          P.M.---
e|----------------------------------------------------------------------------|
B|----------------------------------------------------------------------------|
G|---6-------------7-----------------6-------------7-------7------------------|
D|---4-------------5-----------------4-------------5-------5------------------|
A|---5-------------7-----------------5-------------7-------7------------------|
E|---5--x--5-5-5-x-5---x--5-5-5-x----5--x--5-5-5-x-5---x------x---------------|


[Chorus 2]
e|----------------------------------------------------------------------------|
B|------7----7---7----3--------3----3-3---------7---7-----3-------3-3---------|
G|------7----7---7----4------4------6-6---------6---6-----3-------3-3---------|
D|------5----5---5----5----5--------5-5---------7---7-----2-------2-2---------|
A|-------------------------------------------5----x-----x---------------------|
E|---x--0--x---0----x-5--5---x----5-----x-----------------2---x-2-2-2-x-------|

e|----------------------------------------------------------------------------|
B|------7----7---7----3--------3----3-3---3---3-3---3------7---7--5-----------|
G|------7----7---7----4------4------4-4-4-----3-3---3------7---7--6-----------|
D|------5----5---5----5----5--------5-5-------2-2---2------7---7--7-----------|
A|----------------------------------------------------------------0-----------|
E|---x--0--x---0----x-5--5---x----5-----x-----2-2-x-2---x----x-------x--------|


[Bridge] (improvised over these two chords with a lot of hammer ons)
e|----------------------------------------------------------------------------|
B|------6----6-6---6---6-6-6-6----6-6-6-6---6---6-----------------------------|
G|-----7-----5h7---7---5h7-5-7----5-5-5-5---5-----5---------------------------|
D|----5-------------------------------------5---------------------------------|
A|---6-----6-----6---6-----6--------------------------------------------------|
E|------------------------------6-------x-6---6-------------------------------|

e|----------------------------------------------------------------------------|
B|---5-------6-6---6---6-6-6-6----6-6-6-6-----6-6-6-6-------------------------|
G|---5h7-----5h7---7---5h7-5-7----5-7-5-5h7---5-7-7p5-------------------------|
D|---5------------------------------------------------------------------------|
A|---6-----6-----6---6-----6--------------------------------------------------|
E|---x--------------------------6-------x---6---6-----------------------------|

e|----------------------------------------------------------------------------|
B|---5-------6-6---6---6-6-6-6----6-6-6-6-----6-6-6-6-------------------------|
G|---5h7-----5h7---7---5h7-5-7----5-7-5-5h7---5-7-7-5-------------------------|
D|---5------------------------------------------------------------------------|
A|---6-----6-----6---6-----6--------------------------------------------------|
E|---x--------------------------6-x-----x---6---6-----------------------------|

e|---------------------------------------------------------------------------------------|
B|---5-------6-6---6---6-6-6-6--3----3-3-3-3-3------3-------3-------3-------3-3-3-3-3-3--|
G|---5h7-----5h7---7---7-7-7-7--4----4-4-4-4-4---4------4-------4-------4-----4-4-4-4-4--|
D|---5--------------------------5----5-5-5-5-5-----5------5-------5-------5---5-5-5-5-5--|
A|---6-----6-----6---6-----6-------------------------------------------------------------|
E|------------------------------3--x-3-3-3-x---3------3-------3-------3-------3-3-3-3-3--|


[Chorus 3] (Fade out chorus)
e|----------------------------------------------------------------------------|
B|------7----7---7----3--------3----3-3-------7---7---7-----3-------3-3-------|
G|------7----7---7----4------4------6-6-------6---6---6-----3-------3-3-------|
D|------5----5---5----5----5--------5-5-------7---7---7-----2-------2-2-------|
A|-----------------------------------------5----x---0---x---------------------|
E|---x--0--x---0----x-5--5---x----5-----x-------------------2---x-2-----x-----|

e|----------------------------------------------------------------------------|
B|------7----7---7----3--------3----3-3---3---3-3---3------7---7--5-----------|
G|------7----7---7----4------4------4-4-4-----3-3---3------7---7--6---5-------|
D|------5----5---5----5----5--------5-5-------2-2---2------7---7--7---7-------|
A|----------------------------------------------------------------0---6-------|
E|---x--0--x---0----x-5--5---x----5-----x-----2-2-x-2---x----x----------------|

e|----------------------------------------------------------------------------|
B|------7----7---7----3--------3----3-3-------7---7---7-----3-----3//---------|
G|------7----7---7----4------4------6-6-------6---6---6-----3-----3//---------|
D|------5----5---5----5----5--------5-5-------7---7---7-----2-----2//---------|
A|-----------------------------------------5----x---0---x---------------------|
E|---x--0--x---0----x-5--5---x----5-----x-------------------2---x-2-----------|

e|----------------------------------------------------------------------------|
B|------7----7---7----3-------------3------3-------3-3------7---7--5----------|
G|------7----7---7----4-------------4------3-------3-3------7---7--6----------|
D|------5----5---5----5-------------5------2-------2-2------7---7--7----------|
A|-----------------------------------------------------------------0----------|
E|---x--0--x---0----x-5------x----5---x----2--x--2-2-2-x--x---x---------------|


Still Feel Like Your Man Lyrics
LYRICS

[Intro]
I still feel like your man
I still feel like your man
I still feel
I still feel
I still feel like your man

[Verse 1]
The prettiest girl in the room she wants me
I know because she told me so
She says come over
I'd like to get to know you
But I just don't think I can

[Chorus]
'Cause I still feel like your man
Still feel like your man
I still feel like your man
Still feel like your man
I still feel like your man

[Verse 2]
I still keep your shampoo in my shower
In case you wanna wash your hair
And I know that you probably found yourself some more somewhere
But I do not really care
'Cause as long as it is there

[Chorus]
I still feel like your man
Still feel like your man
Still feel like your man, oh mama
Still feel like your man
I still feel like your man, your man

[Bridge]
(Ever since the day we met, ever since the day we met)
Still like the letters in your name and how they feel, babe
Still think I'm never gonna find another you
Still like to leave the party early and go home, babe
And don't you know, babe
I'd rather sit here on my own and be alone, babe

[Chorus]
'Cause I still feel like your man
Still feel like your man
(I still feel like) Still feel like your man (oh honey)
Still feel like your man

I still feel like your man
Still feel like your man
Still feel like your man (And I don't know why)
Still feel like your man

[Outro]
I still feel like
I still feel like
I still feel like
I still, I still


If you have any suggestions please email me, thanks. 

            
            
Suggest correction
Creating personal tab
Creating personal tab
You can edit any tab online and save it as your Personal.

You can edit, replace or remove any tab part or add personal notes – all changes will be seen only by you.

Personal tabs can be accessed anytime from any device, even offline.
Learn more »
Give kudos to tab author, rate the tab!
1 2 3 4 5
comments
print report bad tab
guest
You may want to rate the tab now too:
select rating
Wanna post a correction for this tab? Suggest correction