Oops, an error
Loading. Please wait.

Stitched Up Tab

version 2
version 2

Whole song

21,959 views 27 this week
no commentswrite comment
1 2 3 4 5
excellent!
x 8
add to favorites
launch autoscroll
font size
0
reset
how to read this tab
guitar tuner
Autoscroll
slow
fast
+/-
esc
set tempo
stop
Help us to improve Ultimate-Guitar.com Take our survey!
×
Contributor
-----------------------------------------------------------------------------
                             Stitched Up - John Mayer and Herbie Hancock
-----------------------------------------------------------------------------
Tabbed by: tearhere619
Email: jv061891@gmail.com

Title: Stitched Up
Artist(s): John Mayer and Herbie Hancock
Album: Possibilities (2005)
Tuning: Standard

*Hey guys...This is my first tab so go easy on me. I hope you like it.

Verses:

"Exactly how you hear it, is exactly how it all went down… "

e|-------------------------|
B|-------------------------|
G|----6-----4-----5-----2--| (Repeat until chorus)
D|----7-----4-----4-----2--| 
A|----0-----6-----5-----0--|
E|-------------------------|

Chorus:

"Don’t wanna be, stitched up out of my mind 
Feeling strung out, laggin’ behind..."

e|----------------------|----------------------|
B|----------------------|----------------------|
G|--/6---/4----5----2---|--/6---/4----5----2---| (2x)
D|--/7---/3----4----3---|--/7---/3----4----3---|
A|---x----x----5----x---|---x----x----5----x---|
E|---5----3---------3---|---5----3---------3---|

Bridge:

This is with the aahs and oohs...

       Dm7       G7       CM7      Am9 or C13
e|------5---------3--------x-----------x-------|
B|------6---------3--------5-----------x-------| (Repeat then stop on G7)
G|------5---------4--------4-----------5-------|
D|------7---------3--------5-----------5-------|
A|------5---------5--------3-----------x-------|
E|------x---------3--------x-----------5-------|

Outro:

"Stitch me up, string me out 
Trap me in, lock me down..."

e|----------------------|----------------------|
B|----------------------|----------------------|
G|--/6---/4----5----2---|--/6---/4----5----2---|
D|--/7---/3----4----3---|--/7---/3----4----3---|
A|---x----x----5----x---|---x----x----5----x---|
E|---5----3---------3---|---5----3---------3---|

There's a lick at the end of every chorus and verse. It goes:

e|----12---10--------------------------|
B|------------13----10-----------------|
G|----------------------12---10---9----|
D|-------------------------------------|
A|-------------------------------------|
E|-------------------------------------|

END

| /  slide up
| \  slide down
| h  hammer-on
| p  pull-off
| ~  vibrato
| +  harmonic
| x  Mute note
===============================================================================
comments
print report bad tab
I want to post or [tab]
guest
You may want to rate the tab now too:
select rating
Please do not post tabs as comments. Select "correction" instead!