Oops, an error
Loading. Please wait.

Stop This Train Tab

version 1
version 1

Interactive

415,504 views 75 this week
8 commentsread comments
1 2 3 4 5
x 20
add to favorites
launch autoscroll
font size
0
reset
how to read this tab
guitar tuner
Autoscroll
slow
fast
+/-
esc
set tempo
stop
Help us to improve Ultimate-Guitar.com Take our survey!
×
Difficulty
intermediate
John Mayer-Stop This Train
Tuning: Standard(EADGBE)

Intro

e:--0---0-----7---5--  --0--|
B:--0---0h3---0---0--  --0--|
G:--2---2-----7---6--  --2--|
D:--0---0-----0---0--  --0--|
A:-------------------  -----|
E:-------------------  -----|



Verse

e:--2---7---5---0--  --0-----7---5---0--|
B:--3---0---0---0--  --0h3---0---0---0--|
G:--0---7---6---2--  --2-----7---6---2--|
D:-----------------  --0-----0---0---0--|
A:-----------------  -------------------|
E:--3---3---3---3--  -------------------|



Chorus

e:--2--0--2--3--2--0--2------2--0--2--3--2--0--2------2--0--2--0--|
B:--3--3--3--3--3--3--3---3--3--3--3--3--3--3--3---3--3--3--3--3--|
G:--3--3--3--3--3--3--3---2--2--2--2--2--2--2--2---1--1--1--1--1--|
D:-------------------------------------------------0--0--0--0--0--|
A:-------------------------------------------------2--2--2--2--2--|
E:--3--3--3--3--3--3--3---2--2--2--2--2--2--2--2---0--0--0--0--0--|


e:--0--0--0--0--|
B:--0--0--0--0--|
G:--7--6--5--4--|
D:--5--5--5--5--|
A:--------------|
E:--5--5--5--5--|



Pre-Chorus After 3rd Verse

e:--2---1---2---0--|
B:--3---3---3---3--|
G:--3---3---2---1--|
D:--------------0--|
A:--------------2--|
E:--3---3---2---0--|



Bridge

e:-----------------  ---------------------|
B:--0---2---3---5--  --7---7-----------3--|
G:--0---0---0---0--  ----------5---5------|
D:--0---0----------  ----7-------5-----5--|
A:------0---2---4--  --5------------------|
E:--3--------------------------5-------0--|



Ending

e:-----|
B:--3--|
G:-----|
D:--4--|
A:-----|
E:--2--|

Suggest correction
comments
print report bad tab
8 comments total. Showing first comments.
0 reply
Remmy_214 10 Jun 30, 2009 02:58 AM

great tab man! Great Song

0 reply
Jay_L 10 Jul 01, 2009 06:55 AM

John Mayer uses fingerstyle, as in his thumb is playing the bass note and his fingers are playing the notes, which by the way some of them are individual notes and not chords FYI, nice attempt though.

+5 reply
imakikyoass225 10 Jul 05, 2009 07:16 AM

how the heck are you suppost to grab the 3 on E string and the 7s on the 1st and 3rd!?!??!!

guest
You may want to rate the tab now too:
select rating
Wanna post a correction for this tab? Suggest correction