Oops, an error
Loading. Please wait.

Stop This Train Tab

version 4
version 4

Interactive

44,680 views 18 this week
no commentswrite comment
1 2 3 4 5
accurate
x 9
add to favorites
launch autoscroll
font size
0
reset
how to read this tab
guitar tuner
Tab Pro tools
  • play this tab
  • loop segment
  • change instrument
  • show fretboard
  • metronome
×
Best way to learn
"Stop This Train"
Autoscroll
slow
fast
+/-
esc
set tempo
stop
John Mayer - Stop This Train

Intro

e:--0---7---5---0---0---|
B:--2---0---0---0---0h3-|
G:--2---7---6---2---2---| x4
D:--0---0---0---0---0---|
A:------------------0---|
E:------------------3---|

Verses

e:--2---7---5---0----0-----7---5---0--|
B:--3---0---0---0----0h3---0---0---0--|
G:--0---7---6---2----2-----7---6---2--|
D:--0---0---0---0----0-----0---0---0--|
A:--0---0---0---0----0-----0---0---0--|
E:--3----------------3-----0---0---0--|

Chorus

e:--2--0--2--3--2--0--0h2----2--0--2--3--2--0--0h2----2--0--2--0--|
B:--3--3--3--3--3--3--3---3--3--3--3--3--3--3--3---3--3--3--3--3--|
G:--3--3--3--3--3--3--3---2--2--2--2--2--2--2--2---1--1--1--1--1--|
D:-------------------------------------------------0--0--0--0--0--|
A:-------------------------------------------------2--2--2--2--2--|
E:--3--3--3--3--3--3--3---2--2--2--2--2--2--2--2---0--0--0--0--0--|


e:--0--0--0--0--|
B:--0--0--0--0--|
G:--7--6--5--4--|
D:--5--5--5--5--|
A:--------------|
E:--5--5--5--5--|


Piano Solo

e:--2---7---5---0----0-----7---5---0--|
B:--3---0---0---0----0h3---0---0---0--|
G:--0---7---6---2----2-----7---6---2--|
D:--0---0---0---0----0-----0---0---0--|
A:--0---0---0---0----0-----0---0---0--|
E:--3----------------3-----0---0---0--|


"Had a talk with my old man"

e:--2---1---0---0--|
B:--3---3---3---3--|
G:--0---3---2---1--|
D:--------------0--|
A:--------------2--|
E:--3---3---2---0--|

"Once in a while.."

e:---------------------------------------------------------|
B:---0---2---3---5-----------7---0---3---------------------|
G:---0---0---0---0-----------0---5---0---------------------|
D:---0---0---0---0---(x3)----7---5---4---(back to chorus)--|
A:---x---0---2---4-----------5---x---x---------------------|
E:---3---------------------------5---0---------------------|

Ending

e:--0---7---5---0---0---|
B:--2---0---0---0---0h3-|
G:--2---7---6---2 --2---|
D:--0---0---0---0 --0---|
A:--------------- --0---|
E:--------------- --3---|
comments
print report bad tab
I want to post or [tab]
guest
You may want to rate the tab now too:
select rating
Please do not post tabs as comments. Select "correction" instead!